ISO-10303-21;
HEADER;
/* Generated by software containing ST-Developer
 * from STEP Tools, Inc. (www.steptools.com) 
 */

FILE_DESCRIPTION(
/* description */ (''),
/* implementation_level */ '2;1');

FILE_NAME(
/* name */ '881260z.stp',
/* time_stamp */ '2024-05-29T15:56:27+02:00',
/* author */ ('corinna'),
/* organization */ (''),
/* preprocessor_version */ 'ST-DEVELOPER v20',
/* originating_system */ 'Autodesk Inventor 2024',
/* authorisation */ '');

FILE_SCHEMA (('AUTOMOTIVE_DESIGN { 1 0 10303 214 3 1 1 }'));
ENDSEC;

DATA;
#10=MECHANICAL_DESIGN_GEOMETRIC_PRESENTATION_REPRESENTATION('',(#13),#539);
#11=SHAPE_REPRESENTATION_RELATIONSHIP('SRR','None',#546,#12);
#12=ADVANCED_BREP_SHAPE_REPRESENTATION('',(#14),#538);
#13=STYLED_ITEM('',(#555),#14);
#14=MANIFOLD_SOLID_BREP('Volumenk\X\F6rper1',#278);
#15=FACE_BOUND('',#54,.T.);
#16=FACE_BOUND('',#57,.T.);
#17=PLANE('',#330);
#18=PLANE('',#334);
#19=CYLINDRICAL_SURFACE('',#310,28.);
#20=CYLINDRICAL_SURFACE('',#319,22.5);
#21=CYLINDRICAL_SURFACE('',#332,33.);
#22=CYLINDRICAL_SURFACE('',#336,30.1000000000001);
#23=TOROIDAL_SURFACE('',#306,27.,1.);
#24=TOROIDAL_SURFACE('',#313,27.6,0.4);
#25=TOROIDAL_SURFACE('',#324,27.6296560028006,0.4);
#26=TOROIDAL_SURFACE('',#339,29.9000000000001,0.2);
#27=TOROIDAL_SURFACE('',#346,20.4999999999999,0.5);
#28=FACE_OUTER_BOUND('',#44,.T.);
#29=FACE_OUTER_BOUND('',#45,.T.);
#30=FACE_OUTER_BOUND('',#46,.T.);
#31=FACE_OUTER_BOUND('',#47,.T.);
#32=FACE_OUTER_BOUND('',#48,.T.);
#33=FACE_OUTER_BOUND('',#49,.T.);
#34=FACE_OUTER_BOUND('',#50,.T.);
#35=FACE_OUTER_BOUND('',#51,.T.);
#36=FACE_OUTER_BOUND('',#52,.T.);
#37=FACE_OUTER_BOUND('',#53,.T.);
#38=FACE_OUTER_BOUND('',#55,.T.);
#39=FACE_OUTER_BOUND('',#56,.T.);
#40=FACE_OUTER_BOUND('',#58,.T.);
#41=FACE_OUTER_BOUND('',#59,.T.);
#42=FACE_OUTER_BOUND('',#60,.T.);
#43=FACE_OUTER_BOUND('',#61,.T.);
#44=EDGE_LOOP('',(#177,#178,#179,#180,#181,#182));
#45=EDGE_LOOP('',(#183,#184,#185,#186,#187,#188));
#46=EDGE_LOOP('',(#189,#190,#191,#192,#193,#194));
#47=EDGE_LOOP('',(#195,#196,#197,#198,#199,#200));
#48=EDGE_LOOP('',(#201,#202,#203,#204,#205));
#49=EDGE_LOOP('',(#206,#207,#208,#209));
#50=EDGE_LOOP('',(#210,#211,#212,#213,#214));
#51=EDGE_LOOP('',(#215,#216,#217,#218,#219,#220));
#52=EDGE_LOOP('',(#221,#222,#223,#224,#225));
#53=EDGE_LOOP('',(#226));
#54=EDGE_LOOP('',(#227));
#55=EDGE_LOOP('',(#228,#229,#230,#231));
#56=EDGE_LOOP('',(#232));
#57=EDGE_LOOP('',(#233));
#58=EDGE_LOOP('',(#234,#235,#236,#237,#238));
#59=EDGE_LOOP('',(#239,#240,#241,#242,#243,#244));
#60=EDGE_LOOP('',(#245,#246,#247,#248,#249,#250));
#61=EDGE_LOOP('',(#251,#252,#253,#254,#255,#256));
#62=LINE('',#459,#71);
#63=LINE('',#472,#72);
#64=LINE('',#485,#73);
#65=LINE('',#488,#74);
#66=LINE('',#492,#75);
#67=LINE('',#504,#76);
#68=LINE('',#512,#77);
#69=LINE('',#521,#78);
#70=LINE('',#533,#79);
#71=VECTOR('',#354,23.9182468341699);
#72=VECTOR('',#371,28.);
#73=VECTOR('',#388,24.95);
#74=VECTOR('',#391,22.5);
#75=VECTOR('',#396,25.2062493576376);
#76=VECTOR('',#411,28.3864024387872);
#77=VECTOR('',#422,33.);
#78=VECTOR('',#433,30.1000000000001);
#79=VECTOR('',#448,25.3208745235628);
#80=CIRCLE('',#302,20.1635063316593);
#81=CIRCLE('',#303,27.6729873366805);
#82=CIRCLE('',#304,27.6729873366805);
#83=CIRCLE('',#305,20.1635063316593);
#84=CIRCLE('',#307,1.);
#85=CIRCLE('',#308,28.);
#86=CIRCLE('',#309,28.);
#87=CIRCLE('',#311,28.);
#88=CIRCLE('',#312,28.);
#89=CIRCLE('',#314,0.4);
#90=CIRCLE('',#315,27.4000000000001);
#91=CIRCLE('',#316,27.4000000000001);
#92=CIRCLE('',#318,22.5);
#93=CIRCLE('',#320,22.5);
#94=CIRCLE('',#322,27.9124987152752);
#95=CIRCLE('',#323,27.9124987152752);
#96=CIRCLE('',#325,0.4);
#97=CIRCLE('',#326,28.0228048775743);
#98=CIRCLE('',#327,28.0228048775743);
#99=CIRCLE('',#329,28.75);
#100=CIRCLE('',#331,33.);
#101=CIRCLE('',#333,33.);
#102=CIRCLE('',#335,30.1000000000001);
#103=CIRCLE('',#337,30.1000000000001);
#104=CIRCLE('',#338,30.1000000000001);
#105=CIRCLE('',#340,29.9690711563217);
#106=CIRCLE('',#341,0.2);
#107=CIRCLE('',#342,29.9690711563217);
#108=CIRCLE('',#344,20.6726778908039);
#109=CIRCLE('',#345,20.6726778908039);
#110=CIRCLE('',#347,0.5);
#111=VERTEX_POINT('',#455);
#112=VERTEX_POINT('',#456);
#113=VERTEX_POINT('',#458);
#114=VERTEX_POINT('',#460);
#115=VERTEX_POINT('',#465);
#116=VERTEX_POINT('',#467);
#117=VERTEX_POINT('',#471);
#118=VERTEX_POINT('',#473);
#119=VERTEX_POINT('',#477);
#120=VERTEX_POINT('',#479);
#121=VERTEX_POINT('',#483);
#122=VERTEX_POINT('',#487);
#123=VERTEX_POINT('',#491);
#124=VERTEX_POINT('',#493);
#125=VERTEX_POINT('',#497);
#126=VERTEX_POINT('',#499);
#127=VERTEX_POINT('',#503);
#128=VERTEX_POINT('',#507);
#129=VERTEX_POINT('',#510);
#130=VERTEX_POINT('',#514);
#131=VERTEX_POINT('',#517);
#132=VERTEX_POINT('',#518);
#133=VERTEX_POINT('',#523);
#134=VERTEX_POINT('',#524);
#135=VERTEX_POINT('',#529);
#136=VERTEX_POINT('',#530);
#137=EDGE_CURVE('',#111,#112,#80,.T.);
#138=EDGE_CURVE('',#112,#113,#62,.T.);
#139=EDGE_CURVE('',#114,#113,#81,.T.);
#140=EDGE_CURVE('',#113,#114,#82,.T.);
#141=EDGE_CURVE('',#112,#111,#83,.T.);
#142=EDGE_CURVE('',#114,#115,#84,.T.);
#143=EDGE_CURVE('',#116,#115,#85,.T.);
#144=EDGE_CURVE('',#115,#116,#86,.T.);
#145=EDGE_CURVE('',#116,#117,#63,.T.);
#146=EDGE_CURVE('',#118,#117,#87,.T.);
#147=EDGE_CURVE('',#117,#118,#88,.T.);
#148=EDGE_CURVE('',#118,#119,#89,.T.);
#149=EDGE_CURVE('',#120,#119,#90,.T.);
#150=EDGE_CURVE('',#119,#120,#91,.T.);
#151=EDGE_CURVE('',#121,#121,#92,.T.);
#152=EDGE_CURVE('',#121,#120,#64,.T.);
#153=EDGE_CURVE('',#121,#122,#65,.T.);
#154=EDGE_CURVE('',#122,#122,#93,.T.);
#155=EDGE_CURVE('',#122,#123,#66,.T.);
#156=EDGE_CURVE('',#124,#123,#94,.T.);
#157=EDGE_CURVE('',#123,#124,#95,.T.);
#158=EDGE_CURVE('',#124,#125,#96,.T.);
#159=EDGE_CURVE('',#126,#125,#97,.T.);
#160=EDGE_CURVE('',#125,#126,#98,.T.);
#161=EDGE_CURVE('',#126,#127,#67,.T.);
#162=EDGE_CURVE('',#127,#127,#99,.T.);
#163=EDGE_CURVE('',#128,#128,#100,.T.);
#164=EDGE_CURVE('',#129,#129,#101,.T.);
#165=EDGE_CURVE('',#129,#128,#68,.T.);
#166=EDGE_CURVE('',#130,#130,#102,.T.);
#167=EDGE_CURVE('',#131,#132,#103,.T.);
#168=EDGE_CURVE('',#132,#131,#104,.T.);
#169=EDGE_CURVE('',#132,#130,#69,.T.);
#170=EDGE_CURVE('',#133,#134,#105,.T.);
#171=EDGE_CURVE('',#133,#131,#106,.T.);
#172=EDGE_CURVE('',#134,#133,#107,.T.);
#173=EDGE_CURVE('',#135,#136,#108,.T.);
#174=EDGE_CURVE('',#136,#135,#109,.T.);
#175=EDGE_CURVE('',#136,#134,#70,.T.);
#176=EDGE_CURVE('',#111,#135,#110,.T.);
#177=ORIENTED_EDGE('',*,*,#137,.T.);
#178=ORIENTED_EDGE('',*,*,#138,.T.);
#179=ORIENTED_EDGE('',*,*,#139,.F.);
#180=ORIENTED_EDGE('',*,*,#140,.F.);
#181=ORIENTED_EDGE('',*,*,#138,.F.);
#182=ORIENTED_EDGE('',*,*,#141,.T.);
#183=ORIENTED_EDGE('',*,*,#139,.T.);
#184=ORIENTED_EDGE('',*,*,#140,.T.);
#185=ORIENTED_EDGE('',*,*,#142,.T.);
#186=ORIENTED_EDGE('',*,*,#143,.F.);
#187=ORIENTED_EDGE('',*,*,#144,.F.);
#188=ORIENTED_EDGE('',*,*,#142,.F.);
#189=ORIENTED_EDGE('',*,*,#144,.T.);
#190=ORIENTED_EDGE('',*,*,#145,.T.);
#191=ORIENTED_EDGE('',*,*,#146,.F.);
#192=ORIENTED_EDGE('',*,*,#147,.F.);
#193=ORIENTED_EDGE('',*,*,#145,.F.);
#194=ORIENTED_EDGE('',*,*,#143,.T.);
#195=ORIENTED_EDGE('',*,*,#146,.T.);
#196=ORIENTED_EDGE('',*,*,#147,.T.);
#197=ORIENTED_EDGE('',*,*,#148,.T.);
#198=ORIENTED_EDGE('',*,*,#149,.F.);
#199=ORIENTED_EDGE('',*,*,#150,.F.);
#200=ORIENTED_EDGE('',*,*,#148,.F.);
#201=ORIENTED_EDGE('',*,*,#151,.F.);
#202=ORIENTED_EDGE('',*,*,#152,.T.);
#203=ORIENTED_EDGE('',*,*,#149,.T.);
#204=ORIENTED_EDGE('',*,*,#150,.T.);
#205=ORIENTED_EDGE('',*,*,#152,.F.);
#206=ORIENTED_EDGE('',*,*,#151,.T.);
#207=ORIENTED_EDGE('',*,*,#153,.T.);
#208=ORIENTED_EDGE('',*,*,#154,.F.);
#209=ORIENTED_EDGE('',*,*,#153,.F.);
#210=ORIENTED_EDGE('',*,*,#154,.T.);
#211=ORIENTED_EDGE('',*,*,#155,.T.);
#212=ORIENTED_EDGE('',*,*,#156,.F.);
#213=ORIENTED_EDGE('',*,*,#157,.F.);
#214=ORIENTED_EDGE('',*,*,#155,.F.);
#215=ORIENTED_EDGE('',*,*,#156,.T.);
#216=ORIENTED_EDGE('',*,*,#157,.T.);
#217=ORIENTED_EDGE('',*,*,#158,.T.);
#218=ORIENTED_EDGE('',*,*,#159,.F.);
#219=ORIENTED_EDGE('',*,*,#160,.F.);
#220=ORIENTED_EDGE('',*,*,#158,.F.);
#221=ORIENTED_EDGE('',*,*,#160,.T.);
#222=ORIENTED_EDGE('',*,*,#161,.T.);
#223=ORIENTED_EDGE('',*,*,#162,.F.);
#224=ORIENTED_EDGE('',*,*,#161,.F.);
#225=ORIENTED_EDGE('',*,*,#159,.T.);
#226=ORIENTED_EDGE('',*,*,#163,.F.);
#227=ORIENTED_EDGE('',*,*,#162,.T.);
#228=ORIENTED_EDGE('',*,*,#164,.F.);
#229=ORIENTED_EDGE('',*,*,#165,.T.);
#230=ORIENTED_EDGE('',*,*,#163,.T.);
#231=ORIENTED_EDGE('',*,*,#165,.F.);
#232=ORIENTED_EDGE('',*,*,#164,.T.);
#233=ORIENTED_EDGE('',*,*,#166,.F.);
#234=ORIENTED_EDGE('',*,*,#167,.F.);
#235=ORIENTED_EDGE('',*,*,#168,.F.);
#236=ORIENTED_EDGE('',*,*,#169,.T.);
#237=ORIENTED_EDGE('',*,*,#166,.T.);
#238=ORIENTED_EDGE('',*,*,#169,.F.);
#239=ORIENTED_EDGE('',*,*,#170,.F.);
#240=ORIENTED_EDGE('',*,*,#171,.T.);
#241=ORIENTED_EDGE('',*,*,#167,.T.);
#242=ORIENTED_EDGE('',*,*,#168,.T.);
#243=ORIENTED_EDGE('',*,*,#171,.F.);
#244=ORIENTED_EDGE('',*,*,#172,.F.);
#245=ORIENTED_EDGE('',*,*,#173,.F.);
#246=ORIENTED_EDGE('',*,*,#174,.F.);
#247=ORIENTED_EDGE('',*,*,#175,.T.);
#248=ORIENTED_EDGE('',*,*,#172,.T.);
#249=ORIENTED_EDGE('',*,*,#170,.T.);
#250=ORIENTED_EDGE('',*,*,#175,.F.);
#251=ORIENTED_EDGE('',*,*,#137,.F.);
#252=ORIENTED_EDGE('',*,*,#176,.T.);
#253=ORIENTED_EDGE('',*,*,#173,.T.);
#254=ORIENTED_EDGE('',*,*,#174,.T.);
#255=ORIENTED_EDGE('',*,*,#176,.F.);
#256=ORIENTED_EDGE('',*,*,#141,.F.);
#257=CONICAL_SURFACE('',#301,23.9182468341699,0.832556092385803);
#258=CONICAL_SURFACE('',#317,24.95,1.0471975511966);
#259=CONICAL_SURFACE('',#321,25.2062493576376,0.785398163397445);
#260=CONICAL_SURFACE('',#328,28.3864024387872,0.185347949995694);
#261=CONICAL_SURFACE('',#343,25.3208745235628,1.21817846073964);
#262=ADVANCED_FACE('',(#28),#257,.F.);
#263=ADVANCED_FACE('',(#29),#23,.F.);
#264=ADVANCED_FACE('',(#30),#19,.F.);
#265=ADVANCED_FACE('',(#31),#24,.F.);
#266=ADVANCED_FACE('',(#32),#258,.T.);
#267=ADVANCED_FACE('',(#33),#20,.F.);
#268=ADVANCED_FACE('',(#34),#259,.F.);
#269=ADVANCED_FACE('',(#35),#25,.F.);
#270=ADVANCED_FACE('',(#36),#260,.F.);
#271=ADVANCED_FACE('',(#37,#15),#17,.T.);
#272=ADVANCED_FACE('',(#38),#21,.T.);
#273=ADVANCED_FACE('',(#39,#16),#18,.T.);
#274=ADVANCED_FACE('',(#40),#22,.T.);
#275=ADVANCED_FACE('',(#41),#26,.T.);
#276=ADVANCED_FACE('',(#42),#261,.T.);
#277=ADVANCED_FACE('',(#43),#27,.T.);
#278=CLOSED_SHELL('',(#262,#263,#264,#265,#266,#267,#268,#269,#270,#271,
#272,#273,#274,#275,#276,#277));
#279=DERIVED_UNIT_ELEMENT(#282,1.);
#280=DERIVED_UNIT_ELEMENT(#541,-3.);
#281=DIMENSIONAL_EXPONENTS(0.,1.,0.,0.,0.,0.,0.);
#282=(
CONVERSION_BASED_UNIT('gram',#284)
MASS_UNIT()
NAMED_UNIT(#281)
);
#283=(
MASS_UNIT()
NAMED_UNIT(*)
SI_UNIT(.KILO.,.GRAM.)
);
#284=MASS_MEASURE_WITH_UNIT(MASS_MEASURE(0.001),#283);
#285=DERIVED_UNIT((#279,#280));
#286=MEASURE_REPRESENTATION_ITEM('density measure',
POSITIVE_RATIO_MEASURE(1.),#285);
#287=PROPERTY_DEFINITION_REPRESENTATION(#292,#289);
#288=PROPERTY_DEFINITION_REPRESENTATION(#293,#290);
#289=REPRESENTATION('material name',(#291),#538);
#290=REPRESENTATION('density',(#286),#538);
#291=DESCRIPTIVE_REPRESENTATION_ITEM('Generisch','Generisch');
#292=PROPERTY_DEFINITION('material property','material name',#548);
#293=PROPERTY_DEFINITION('material property','density of part',#548);
#294=DATE_TIME_ROLE('creation_date');
#295=APPLIED_DATE_AND_TIME_ASSIGNMENT(#296,#294,(#548));
#296=DATE_AND_TIME(#297,#298);
#297=CALENDAR_DATE(2024,29,5);
#298=LOCAL_TIME(0,0,0.,#299);
#299=COORDINATED_UNIVERSAL_TIME_OFFSET(0,0,.BEHIND.);
#300=AXIS2_PLACEMENT_3D('',#453,#348,#349);
#301=AXIS2_PLACEMENT_3D('',#454,#350,#351);
#302=AXIS2_PLACEMENT_3D('',#457,#352,#353);
#303=AXIS2_PLACEMENT_3D('',#461,#355,#356);
#304=AXIS2_PLACEMENT_3D('',#462,#357,#358);
#305=AXIS2_PLACEMENT_3D('',#463,#359,#360);
#306=AXIS2_PLACEMENT_3D('',#464,#361,#362);
#307=AXIS2_PLACEMENT_3D('',#466,#363,#364);
#308=AXIS2_PLACEMENT_3D('',#468,#365,#366);
#309=AXIS2_PLACEMENT_3D('',#469,#367,#368);
#310=AXIS2_PLACEMENT_3D('',#470,#369,#370);
#311=AXIS2_PLACEMENT_3D('',#474,#372,#373);
#312=AXIS2_PLACEMENT_3D('',#475,#374,#375);
#313=AXIS2_PLACEMENT_3D('',#476,#376,#377);
#314=AXIS2_PLACEMENT_3D('',#478,#378,#379);
#315=AXIS2_PLACEMENT_3D('',#480,#380,#381);
#316=AXIS2_PLACEMENT_3D('',#481,#382,#383);
#317=AXIS2_PLACEMENT_3D('',#482,#384,#385);
#318=AXIS2_PLACEMENT_3D('',#484,#386,#387);
#319=AXIS2_PLACEMENT_3D('',#486,#389,#390);
#320=AXIS2_PLACEMENT_3D('',#489,#392,#393);
#321=AXIS2_PLACEMENT_3D('',#490,#394,#395);
#322=AXIS2_PLACEMENT_3D('',#494,#397,#398);
#323=AXIS2_PLACEMENT_3D('',#495,#399,#400);
#324=AXIS2_PLACEMENT_3D('',#496,#401,#402);
#325=AXIS2_PLACEMENT_3D('',#498,#403,#404);
#326=AXIS2_PLACEMENT_3D('',#500,#405,#406);
#327=AXIS2_PLACEMENT_3D('',#501,#407,#408);
#328=AXIS2_PLACEMENT_3D('',#502,#409,#410);
#329=AXIS2_PLACEMENT_3D('',#505,#412,#413);
#330=AXIS2_PLACEMENT_3D('',#506,#414,#415);
#331=AXIS2_PLACEMENT_3D('',#508,#416,#417);
#332=AXIS2_PLACEMENT_3D('',#509,#418,#419);
#333=AXIS2_PLACEMENT_3D('',#511,#420,#421);
#334=AXIS2_PLACEMENT_3D('',#513,#423,#424);
#335=AXIS2_PLACEMENT_3D('',#515,#425,#426);
#336=AXIS2_PLACEMENT_3D('',#516,#427,#428);
#337=AXIS2_PLACEMENT_3D('',#519,#429,#430);
#338=AXIS2_PLACEMENT_3D('',#520,#431,#432);
#339=AXIS2_PLACEMENT_3D('',#522,#434,#435);
#340=AXIS2_PLACEMENT_3D('',#525,#436,#437);
#341=AXIS2_PLACEMENT_3D('',#526,#438,#439);
#342=AXIS2_PLACEMENT_3D('',#527,#440,#441);
#343=AXIS2_PLACEMENT_3D('',#528,#442,#443);
#344=AXIS2_PLACEMENT_3D('',#531,#444,#445);
#345=AXIS2_PLACEMENT_3D('',#532,#446,#447);
#346=AXIS2_PLACEMENT_3D('',#534,#449,#450);
#347=AXIS2_PLACEMENT_3D('',#535,#451,#452);
#348=DIRECTION('axis',(0.,0.,1.));
#349=DIRECTION('refdir',(1.,0.,0.));
#350=DIRECTION('center_axis',(2.70805729942241E-15,1.,0.));
#351=DIRECTION('ref_axis',(-1.,2.64782648433283E-15,0.));
#352=DIRECTION('center_axis',(-2.70805729942241E-15,-1.,0.));
#353=DIRECTION('ref_axis',(1.,-2.70805729942241E-15,0.));
#354=DIRECTION('',(0.739654003347238,0.672987336680568,9.05814907675718E-17));
#355=DIRECTION('center_axis',(-2.70805729942241E-15,-1.,0.));
#356=DIRECTION('ref_axis',(1.,-2.70805729942241E-15,0.));
#357=DIRECTION('center_axis',(-2.70805729942241E-15,-1.,0.));
#358=DIRECTION('ref_axis',(1.,-2.70805729942241E-15,0.));
#359=DIRECTION('center_axis',(-2.70805729942241E-15,-1.,0.));
#360=DIRECTION('ref_axis',(1.,-2.70805729942241E-15,0.));
#361=DIRECTION('center_axis',(-2.70805729942241E-15,-1.,0.));
#362=DIRECTION('ref_axis',(0.,0.,-1.));
#363=DIRECTION('center_axis',(-1.,2.70805729942241E-15,-1.22464679914735E-16));
#364=DIRECTION('ref_axis',(-1.22464679914735E-16,0.,1.));
#365=DIRECTION('center_axis',(-2.70805729942241E-15,-1.,0.));
#366=DIRECTION('ref_axis',(1.,-2.70805729942241E-15,0.));
#367=DIRECTION('center_axis',(-2.70805729942241E-15,-1.,0.));
#368=DIRECTION('ref_axis',(1.,-2.70805729942241E-15,0.));
#369=DIRECTION('center_axis',(-2.70805729942241E-15,-1.,0.));
#370=DIRECTION('ref_axis',(-1.,2.64782648433283E-15,0.));
#371=DIRECTION('',(2.70805729942241E-15,1.,0.));
#372=DIRECTION('center_axis',(-2.70805729942241E-15,-1.,0.));
#373=DIRECTION('ref_axis',(1.,-2.70805729942241E-15,0.));
#374=DIRECTION('center_axis',(-2.70805729942241E-15,-1.,0.));
#375=DIRECTION('ref_axis',(1.,-2.70805729942241E-15,0.));
#376=DIRECTION('center_axis',(-2.70805729942241E-15,-1.,0.));
#377=DIRECTION('ref_axis',(0.,0.,-1.));
#378=DIRECTION('center_axis',(-1.,2.70805729942241E-15,-1.22464679914735E-16));
#379=DIRECTION('ref_axis',(-1.22464679914735E-16,0.,1.));
#380=DIRECTION('center_axis',(-2.70805729942241E-15,-1.,0.));
#381=DIRECTION('ref_axis',(1.,-2.70805729942241E-15,0.));
#382=DIRECTION('center_axis',(-2.70805729942241E-15,-1.,0.));
#383=DIRECTION('ref_axis',(1.,-2.70805729942241E-15,0.));
#384=DIRECTION('center_axis',(2.70805729942241E-15,1.,0.));
#385=DIRECTION('ref_axis',(-1.,2.64782648433283E-15,0.));
#386=DIRECTION('center_axis',(-2.70805729942241E-15,-1.,0.));
#387=DIRECTION('ref_axis',(1.,-2.70805729942241E-15,0.));
#388=DIRECTION('',(0.866025403784443,0.499999999999992,1.06057523872491E-16));
#389=DIRECTION('center_axis',(-2.70805729942241E-15,-1.,0.));
#390=DIRECTION('ref_axis',(-1.,2.64782648433283E-15,0.));
#391=DIRECTION('',(2.70805729942241E-15,1.,0.));
#392=DIRECTION('center_axis',(-2.70805729942241E-15,-1.,0.));
#393=DIRECTION('ref_axis',(1.,-2.70805729942241E-15,0.));
#394=DIRECTION('center_axis',(2.70805729942241E-15,1.,0.));
#395=DIRECTION('ref_axis',(-1.,2.64782648433283E-15,0.));
#396=DIRECTION('',(0.707106781186547,0.707106781186548,8.6595605623549E-17));
#397=DIRECTION('center_axis',(-2.70805729942241E-15,-1.,0.));
#398=DIRECTION('ref_axis',(1.,-2.70805729942241E-15,0.));
#399=DIRECTION('center_axis',(-2.70805729942241E-15,-1.,0.));
#400=DIRECTION('ref_axis',(1.,-2.70805729942241E-15,0.));
#401=DIRECTION('center_axis',(-2.70805729942241E-15,-1.,0.));
#402=DIRECTION('ref_axis',(0.,0.,-1.));
#403=DIRECTION('center_axis',(-1.,2.70805729942241E-15,-1.22464679914735E-16));
#404=DIRECTION('ref_axis',(-1.22464679914735E-16,0.,1.));
#405=DIRECTION('center_axis',(-2.70805729942241E-15,-1.,0.));
#406=DIRECTION('ref_axis',(1.,-2.70805729942241E-15,0.));
#407=DIRECTION('center_axis',(-2.70805729942241E-15,-1.,0.));
#408=DIRECTION('ref_axis',(1.,-2.70805729942241E-15,0.));
#409=DIRECTION('center_axis',(2.70805729942241E-15,1.,0.));
#410=DIRECTION('ref_axis',(-1.,2.64782648433283E-15,0.));
#411=DIRECTION('',(0.184288535050187,0.982872186934322,2.25688364568764E-17));
#412=DIRECTION('center_axis',(-2.70805729942241E-15,-1.,0.));
#413=DIRECTION('ref_axis',(1.,-2.70805729942241E-15,0.));
#414=DIRECTION('center_axis',(2.70805729942241E-15,1.,0.));
#415=DIRECTION('ref_axis',(0.,0.,1.));
#416=DIRECTION('center_axis',(-2.70805729942241E-15,-1.,0.));
#417=DIRECTION('ref_axis',(1.,-2.70805729942241E-15,0.));
#418=DIRECTION('center_axis',(-2.70805729942241E-15,-1.,0.));
#419=DIRECTION('ref_axis',(-1.,2.64782648433283E-15,0.));
#420=DIRECTION('center_axis',(-2.70805729942241E-15,-1.,0.));
#421=DIRECTION('ref_axis',(1.,-2.70805729942241E-15,0.));
#422=DIRECTION('',(2.70805729942241E-15,1.,0.));
#423=DIRECTION('center_axis',(-2.70805729942241E-15,-1.,0.));
#424=DIRECTION('ref_axis',(0.,0.,-1.));
#425=DIRECTION('center_axis',(-2.70805729942241E-15,-1.,0.));
#426=DIRECTION('ref_axis',(1.,-2.70805729942241E-15,0.));
#427=DIRECTION('center_axis',(-2.70805729942241E-15,-1.,0.));
#428=DIRECTION('ref_axis',(-1.,2.64782648433283E-15,0.));
#429=DIRECTION('center_axis',(-2.70805729942241E-15,-1.,0.));
#430=DIRECTION('ref_axis',(1.,-2.70805729942241E-15,0.));
#431=DIRECTION('center_axis',(-2.70805729942241E-15,-1.,0.));
#432=DIRECTION('ref_axis',(1.,-2.70805729942241E-15,0.));
#433=DIRECTION('',(2.70805729942241E-15,1.,0.));
#434=DIRECTION('center_axis',(-2.70805729942241E-15,-1.,0.));
#435=DIRECTION('ref_axis',(0.,0.,-1.));
#436=DIRECTION('center_axis',(-2.70805729942241E-15,-1.,0.));
#437=DIRECTION('ref_axis',(1.,-2.70805729942241E-15,0.));
#438=DIRECTION('center_axis',(-1.,2.70805729942241E-15,-1.22464679914735E-16));
#439=DIRECTION('ref_axis',(-1.22464679914735E-16,0.,1.));
#440=DIRECTION('center_axis',(-2.70805729942241E-15,-1.,0.));
#441=DIRECTION('ref_axis',(1.,-2.70805729942241E-15,0.));
#442=DIRECTION('center_axis',(2.70805729942241E-15,1.,0.));
#443=DIRECTION('ref_axis',(-1.,2.64782648433283E-15,0.));
#444=DIRECTION('center_axis',(-2.70805729942241E-15,-1.,0.));
#445=DIRECTION('ref_axis',(1.,-2.70805729942241E-15,0.));
#446=DIRECTION('center_axis',(-2.70805729942241E-15,-1.,0.));
#447=DIRECTION('ref_axis',(1.,-2.70805729942241E-15,0.));
#448=DIRECTION('',(0.938471834478779,0.345355781607947,1.14929652818438E-16));
#449=DIRECTION('center_axis',(-2.70805729942241E-15,-1.,0.));
#450=DIRECTION('ref_axis',(0.,0.,-1.));
#451=DIRECTION('center_axis',(-1.,2.70805729942241E-15,-1.22464679914735E-16));
#452=DIRECTION('ref_axis',(-1.22464679914735E-16,0.,1.));
#453=CARTESIAN_POINT('',(0.,0.,0.));
#454=CARTESIAN_POINT('Origin',(1.16071245201842E-14,4.28614435989217,0.));
#455=CARTESIAN_POINT('',(-1.13775987749397E-16,0.869827001673272,20.1635063316593));
#456=CARTESIAN_POINT('',(20.1635063316593,0.869827001673215,2.4693173488654E-15));
#457=CARTESIAN_POINT('Origin',(2.355541361116E-15,0.869827001673272,0.));
#458=CARTESIAN_POINT('',(27.6729873366805,7.70246171811099,3.3889635364711E-15));
#459=CARTESIAN_POINT('',(23.9182468341699,4.2861443598921,2.92914044266825E-15));
#460=CARTESIAN_POINT('',(1.74697441427812E-14,7.70246171811106,27.6729873366805));
#461=CARTESIAN_POINT('Origin',(2.08587076792523E-14,7.70246171811106,0.));
#462=CARTESIAN_POINT('Origin',(2.08587076792523E-14,7.70246171811106,0.));
#463=CARTESIAN_POINT('Origin',(2.355541361116E-15,0.869827001673272,0.));
#464=CARTESIAN_POINT('Origin',(2.28617331020639E-14,8.44211572145834,0.));
#465=CARTESIAN_POINT('',(1.94327220644513E-14,8.44211572145834,28.));
#466=CARTESIAN_POINT('Origin',(1.95551867443661E-14,8.44211572145834,27.));
#467=CARTESIAN_POINT('',(28.,8.44211572145826,3.42901103761259E-15));
#468=CARTESIAN_POINT('Origin',(2.28617331020639E-14,8.44211572145834,0.));
#469=CARTESIAN_POINT('Origin',(2.28617331020639E-14,8.44211572145834,0.));
#470=CARTESIAN_POINT('Origin',(3.0363715885936E-14,11.2123609394868,0.));
#471=CARTESIAN_POINT('',(28.,13.9826061575153,3.42901103761259E-15));
#472=CARTESIAN_POINT('',(28.,11.2123609394868,3.42901103761259E-15));
#473=CARTESIAN_POINT('',(3.44366876321956E-14,13.9826061575154,28.));
#474=CARTESIAN_POINT('Origin',(3.78656986698081E-14,13.9826061575154,0.));
#475=CARTESIAN_POINT('Origin',(3.78656986698081E-14,13.9826061575154,0.));
#476=CARTESIAN_POINT('Origin',(3.7865698669808E-14,13.9826061575153,0.));
#477=CARTESIAN_POINT('',(3.54482650066259E-14,14.3290163190291,27.4000000000001));
#478=CARTESIAN_POINT('Origin',(3.44856735041613E-14,13.9826061575153,27.6));
#479=CARTESIAN_POINT('',(27.4000000000001,14.3290163190291,3.35553222966376E-15));
#480=CARTESIAN_POINT('Origin',(3.88037972362896E-14,14.3290163190291,0.));
#481=CARTESIAN_POINT('Origin',(3.88037972362896E-14,14.3290163190291,0.));
#482=CARTESIAN_POINT('Origin',(3.49732280898236E-14,12.9145081595145,0.));
#483=CARTESIAN_POINT('',(22.5,11.4999999999999,2.75545529808154E-15));
#484=CARTESIAN_POINT('Origin',(3.11426589433575E-14,11.5,0.));
#485=CARTESIAN_POINT('',(24.9500000000001,12.9145081595145,3.05549376387265E-15));
#486=CARTESIAN_POINT('Origin',(3.24966875930688E-14,12.,0.));
#487=CARTESIAN_POINT('',(22.5,12.4999999999999,2.75545529808154E-15));
#488=CARTESIAN_POINT('',(22.5,11.9999999999999,2.75545529808154E-15));
#489=CARTESIAN_POINT('Origin',(3.385071624278E-14,12.5,0.));
#490=CARTESIAN_POINT('Origin',(4.11793945697877E-14,15.2062493576376,0.));
#491=CARTESIAN_POINT('',(27.9124987152752,17.9124987152751,3.41829522078664E-15));
#492=CARTESIAN_POINT('',(25.2062493576376,15.2062493576375,3.08687525943409E-15));
#493=CARTESIAN_POINT('',(4.50897776760089E-14,17.9124987152752,27.9124987152752));
#494=CARTESIAN_POINT('Origin',(4.85080728967955E-14,17.9124987152752,0.));
#495=CARTESIAN_POINT('Origin',(4.85080728967955E-14,17.9124987152752,0.));
#496=CARTESIAN_POINT('Origin',(4.9274027168901E-14,18.1953414277499,0.));
#497=CARTESIAN_POINT('',(4.56425977742385E-14,18.1216260137297,28.0228048775743));
#498=CARTESIAN_POINT('Origin',(4.58903701903637E-14,18.1953414277499,27.6296560028006));
#499=CARTESIAN_POINT('',(28.0228048775744,18.1216260137296,3.43180382964522E-15));
#500=CARTESIAN_POINT('Origin',(4.90744016038838E-14,18.1216260137297,0.));
#501=CARTESIAN_POINT('Origin',(4.90744016038838E-14,18.1216260137297,0.));
#502=CARTESIAN_POINT('Origin',(5.43258310955883E-14,20.0608130068648,0.));
#503=CARTESIAN_POINT('',(28.7500000000001,21.9999999999999,3.52085954754864E-15));
#504=CARTESIAN_POINT('',(28.3864024387872,20.0608130068648,3.47633168859693E-15));
#505=CARTESIAN_POINT('Origin',(5.95772605872928E-14,22.,0.));
#506=CARTESIAN_POINT('Origin',(-32.9999999999999,22.,0.));
#507=CARTESIAN_POINT('',(33.0000000000001,21.9999999999999,4.04133443718627E-15));
#508=CARTESIAN_POINT('Origin',(5.95772605872928E-14,21.9999999999999,0.));
#509=CARTESIAN_POINT('Origin',(5.4161145988448E-14,19.9999999999999,0.));
#510=CARTESIAN_POINT('',(33.,17.9999999999998,4.04133443718627E-15));
#511=CARTESIAN_POINT('Origin',(4.87450313896031E-14,17.9999999999999,0.));
#512=CARTESIAN_POINT('',(33.,19.9999999999999,4.04133443718627E-15));
#513=CARTESIAN_POINT('Origin',(-30.1000000000001,18.,0.));
#514=CARTESIAN_POINT('',(30.1000000000002,17.9999999999999,3.68618686543355E-15));
#515=CARTESIAN_POINT('Origin',(4.87450313896032E-14,17.9999999999999,0.));
#516=CARTESIAN_POINT('Origin',(2.93005203118951E-14,10.8197564055031,0.));
#517=CARTESIAN_POINT('',(6.16982236875347E-15,3.63951281100632,30.1000000000001));
#518=CARTESIAN_POINT('',(30.1000000000001,3.63951281100624,3.68618686543355E-15));
#519=CARTESIAN_POINT('Origin',(9.85600923418702E-15,3.63951281100632,0.));
#520=CARTESIAN_POINT('Origin',(9.85600923418702E-15,3.63951281100632,0.));
#521=CARTESIAN_POINT('',(30.1000000000001,10.819756405503,3.68618686543355E-15));
#522=CARTESIAN_POINT('Origin',(9.85600923418702E-15,3.63951281100632,0.));
#523=CARTESIAN_POINT('',(5.67756942735364E-15,3.45181844411056,29.9690711563217));
#524=CARTESIAN_POINT('',(29.9690711563217,3.45181844411049,3.67015270650086E-15));
#525=CARTESIAN_POINT('Origin',(9.3477221338545E-15,3.45181844411056,0.));
#526=CARTESIAN_POINT('Origin',(6.19431530473642E-15,3.63951281100632,29.9000000000001));
#527=CARTESIAN_POINT('Origin',(9.3477221338545E-15,3.45181844411056,0.));
#528=CARTESIAN_POINT('Origin',(4.7155165163671E-15,1.74129126343555,0.));
#529=CARTESIAN_POINT('',(-2.44836198199802E-15,0.0307640827605377,20.6726778908039));
#530=CARTESIAN_POINT('',(20.6726778908039,0.0307640827604819,2.53167288087772E-15));
#531=CARTESIAN_POINT('Origin',(8.33108988797018E-17,0.0307640827605377,
0.));
#532=CARTESIAN_POINT('Origin',(8.33108988797018E-17,0.0307640827605377,
0.));
#533=CARTESIAN_POINT('',(25.3208745235628,1.74129126343548,3.10091279368929E-15));
#534=CARTESIAN_POINT('Origin',(1.35402864971104E-15,0.499999999999944,0.));
#535=CARTESIAN_POINT('Origin',(-1.15649728854102E-15,0.499999999999944,
20.4999999999999));
#536=UNCERTAINTY_MEASURE_WITH_UNIT(LENGTH_MEASURE(0.01),#540,
'DISTANCE_ACCURACY_VALUE',
'Maximum model space distance between geometric entities at asserted c
onnectivities');
#537=UNCERTAINTY_MEASURE_WITH_UNIT(LENGTH_MEASURE(0.01),#540,
'DISTANCE_ACCURACY_VALUE',
'Maximum model space distance between geometric entities at asserted c
onnectivities');
#538=(
GEOMETRIC_REPRESENTATION_CONTEXT(3)
GLOBAL_UNCERTAINTY_ASSIGNED_CONTEXT((#536))
GLOBAL_UNIT_ASSIGNED_CONTEXT((#540,#542,#543))
REPRESENTATION_CONTEXT('','3D')
);
#539=(
GEOMETRIC_REPRESENTATION_CONTEXT(3)
GLOBAL_UNCERTAINTY_ASSIGNED_CONTEXT((#537))
GLOBAL_UNIT_ASSIGNED_CONTEXT((#540,#542,#543))
REPRESENTATION_CONTEXT('','3D')
);
#540=(
LENGTH_UNIT()
NAMED_UNIT(*)
SI_UNIT(.MILLI.,.METRE.)
);
#541=(
LENGTH_UNIT()
NAMED_UNIT(*)
SI_UNIT(.CENTI.,.METRE.)
);
#542=(
NAMED_UNIT(*)
PLANE_ANGLE_UNIT()
SI_UNIT($,.RADIAN.)
);
#543=(
NAMED_UNIT(*)
SI_UNIT($,.STERADIAN.)
SOLID_ANGLE_UNIT()
);
#544=SHAPE_DEFINITION_REPRESENTATION(#545,#546);
#545=PRODUCT_DEFINITION_SHAPE('',$,#548);
#546=SHAPE_REPRESENTATION('',(#300),#538);
#547=PRODUCT_DEFINITION_CONTEXT('part definition',#552,'design');
#548=PRODUCT_DEFINITION('881260z','881260z',#549,#547);
#549=PRODUCT_DEFINITION_FORMATION('',$,#554);
#550=PRODUCT_RELATED_PRODUCT_CATEGORY('881260z','881260z',(#554));
#551=APPLICATION_PROTOCOL_DEFINITION('international standard',
'automotive_design',2009,#552);
#552=APPLICATION_CONTEXT(
'Core Data for Automotive Mechanical Design Process');
#553=PRODUCT_CONTEXT('part definition',#552,'mechanical');
#554=PRODUCT('881260z','881260z',$,(#553));
#555=PRESENTATION_STYLE_ASSIGNMENT((#556));
#556=SURFACE_STYLE_USAGE(.BOTH.,#559);
#557=SURFACE_STYLE_RENDERING_WITH_PROPERTIES($,#563,(#558));
#558=SURFACE_STYLE_TRANSPARENT(0.);
#559=SURFACE_SIDE_STYLE('',(#560,#557));
#560=SURFACE_STYLE_FILL_AREA(#561);
#561=FILL_AREA_STYLE('',(#562));
#562=FILL_AREA_STYLE_COLOUR('',#563);
#563=COLOUR_RGB('',0.749019607843137,0.749019607843137,0.749019607843137);
ENDSEC;
END-ISO-10303-21;
