ISO-10303-21;
HEADER;
/* Generated by software containing ST-Developer
 * from STEP Tools, Inc. (www.steptools.com) 
 */

FILE_DESCRIPTION(
/* description */ (''),
/* implementation_level */ '2;1');

FILE_NAME(
/* name */ '881250z.stp',
/* time_stamp */ '2024-05-29T15:57:10+02:00',
/* author */ ('corinna'),
/* organization */ (''),
/* preprocessor_version */ 'ST-DEVELOPER v20',
/* originating_system */ 'Autodesk Inventor 2024',
/* authorisation */ '');

FILE_SCHEMA (('AUTOMOTIVE_DESIGN { 1 0 10303 214 3 1 1 }'));
ENDSEC;

DATA;
#10=MECHANICAL_DESIGN_GEOMETRIC_PRESENTATION_REPRESENTATION('',(#13),#539);
#11=SHAPE_REPRESENTATION_RELATIONSHIP('SRR','None',#546,#12);
#12=ADVANCED_BREP_SHAPE_REPRESENTATION('',(#14),#538);
#13=STYLED_ITEM('',(#555),#14);
#14=MANIFOLD_SOLID_BREP('Volumenk\X\F6rper1',#278);
#15=FACE_BOUND('',#59,.T.);
#16=FACE_BOUND('',#62,.T.);
#17=PLANE('',#343);
#18=PLANE('',#347);
#19=CONICAL_SURFACE('',#309,22.6935602608682,1.36135681655557);
#20=CONICAL_SURFACE('',#316,18.91824683417,0.832556092385804);
#21=CONICAL_SURFACE('',#330,19.9495398916665,1.04453907114733);
#22=CONICAL_SURFACE('',#334,20.2062493576377,0.785398163397435);
#23=CONICAL_SURFACE('',#341,23.3864024387872,0.185347949995689);
#24=TOROIDAL_SURFACE('',#305,29.7000000000003,0.4);
#25=TOROIDAL_SURFACE('',#312,15.5,0.5);
#26=TOROIDAL_SURFACE('',#319,22.,1.);
#27=TOROIDAL_SURFACE('',#326,22.6,0.4);
#28=TOROIDAL_SURFACE('',#337,22.6296560028006,0.4);
#29=FACE_OUTER_BOUND('',#45,.T.);
#30=FACE_OUTER_BOUND('',#46,.T.);
#31=FACE_OUTER_BOUND('',#47,.T.);
#32=FACE_OUTER_BOUND('',#48,.T.);
#33=FACE_OUTER_BOUND('',#49,.T.);
#34=FACE_OUTER_BOUND('',#50,.T.);
#35=FACE_OUTER_BOUND('',#51,.T.);
#36=FACE_OUTER_BOUND('',#52,.T.);
#37=FACE_OUTER_BOUND('',#53,.T.);
#38=FACE_OUTER_BOUND('',#54,.T.);
#39=FACE_OUTER_BOUND('',#55,.T.);
#40=FACE_OUTER_BOUND('',#56,.T.);
#41=FACE_OUTER_BOUND('',#57,.T.);
#42=FACE_OUTER_BOUND('',#58,.T.);
#43=FACE_OUTER_BOUND('',#60,.T.);
#44=FACE_OUTER_BOUND('',#61,.T.);
#45=EDGE_LOOP('',(#178,#179,#180,#181,#182));
#46=EDGE_LOOP('',(#183,#184,#185,#186,#187,#188));
#47=EDGE_LOOP('',(#189,#190,#191,#192,#193,#194));
#48=EDGE_LOOP('',(#195,#196,#197,#198,#199,#200));
#49=EDGE_LOOP('',(#201,#202,#203,#204,#205,#206));
#50=EDGE_LOOP('',(#207,#208,#209,#210,#211,#212));
#51=EDGE_LOOP('',(#213,#214,#215,#216,#217,#218));
#52=EDGE_LOOP('',(#219,#220,#221,#222,#223,#224));
#53=EDGE_LOOP('',(#225,#226,#227,#228,#229));
#54=EDGE_LOOP('',(#230,#231,#232,#233));
#55=EDGE_LOOP('',(#234,#235,#236,#237,#238));
#56=EDGE_LOOP('',(#239,#240,#241,#242,#243,#244));
#57=EDGE_LOOP('',(#245,#246,#247,#248,#249));
#58=EDGE_LOOP('',(#250));
#59=EDGE_LOOP('',(#251));
#60=EDGE_LOOP('',(#252,#253,#254,#255));
#61=EDGE_LOOP('',(#256));
#62=EDGE_LOOP('',(#257));
#63=LINE('',#460,#72);
#64=LINE('',#473,#73);
#65=LINE('',#482,#74);
#66=LINE('',#494,#75);
#67=LINE('',#507,#76);
#68=LINE('',#510,#77);
#69=LINE('',#514,#78);
#70=LINE('',#526,#79);
#71=LINE('',#534,#80);
#72=VECTOR('',#356,30.1000000000001);
#73=VECTOR('',#373,22.6935602608682);
#74=VECTOR('',#384,18.91824683417);
#75=VECTOR('',#399,23.);
#76=VECTOR('',#416,19.9495398916665);
#77=VECTOR('',#419,17.5000000000002);
#78=VECTOR('',#424,20.2062493576377);
#79=VECTOR('',#439,23.3864024387872);
#80=VECTOR('',#450,33.);
#81=CIRCLE('',#302,30.1000000000001);
#82=CIRCLE('',#303,30.1000000000001);
#83=CIRCLE('',#304,30.1000000000001);
#84=CIRCLE('',#306,29.7831646763274);
#85=CIRCLE('',#307,0.4);
#86=CIRCLE('',#308,29.7831646763274);
#87=CIRCLE('',#310,15.603955845409);
#88=CIRCLE('',#311,15.603955845409);
#89=CIRCLE('',#313,15.1635063316594);
#90=CIRCLE('',#314,0.5);
#91=CIRCLE('',#315,15.1635063316594);
#92=CIRCLE('',#317,22.6729873366805);
#93=CIRCLE('',#318,22.6729873366805);
#94=CIRCLE('',#320,1.);
#95=CIRCLE('',#321,23.);
#96=CIRCLE('',#322,23.);
#97=CIRCLE('',#324,23.);
#98=CIRCLE('',#325,23.);
#99=CIRCLE('',#327,0.4);
#100=CIRCLE('',#328,22.3990797833329);
#101=CIRCLE('',#329,22.3990797833329);
#102=CIRCLE('',#331,17.5000000000002);
#103=CIRCLE('',#333,17.5000000000002);
#104=CIRCLE('',#335,22.9124987152752);
#105=CIRCLE('',#336,22.9124987152752);
#106=CIRCLE('',#338,0.4);
#107=CIRCLE('',#339,23.0228048775743);
#108=CIRCLE('',#340,23.0228048775743);
#109=CIRCLE('',#342,23.75);
#110=CIRCLE('',#344,33.);
#111=CIRCLE('',#346,33.);
#112=VERTEX_POINT('',#455);
#113=VERTEX_POINT('',#456);
#114=VERTEX_POINT('',#459);
#115=VERTEX_POINT('',#463);
#116=VERTEX_POINT('',#464);
#117=VERTEX_POINT('',#469);
#118=VERTEX_POINT('',#470);
#119=VERTEX_POINT('',#475);
#120=VERTEX_POINT('',#476);
#121=VERTEX_POINT('',#481);
#122=VERTEX_POINT('',#483);
#123=VERTEX_POINT('',#487);
#124=VERTEX_POINT('',#489);
#125=VERTEX_POINT('',#493);
#126=VERTEX_POINT('',#495);
#127=VERTEX_POINT('',#499);
#128=VERTEX_POINT('',#501);
#129=VERTEX_POINT('',#505);
#130=VERTEX_POINT('',#509);
#131=VERTEX_POINT('',#513);
#132=VERTEX_POINT('',#515);
#133=VERTEX_POINT('',#519);
#134=VERTEX_POINT('',#521);
#135=VERTEX_POINT('',#525);
#136=VERTEX_POINT('',#529);
#137=VERTEX_POINT('',#532);
#138=EDGE_CURVE('',#112,#113,#81,.T.);
#139=EDGE_CURVE('',#113,#112,#82,.T.);
#140=EDGE_CURVE('',#113,#114,#63,.T.);
#141=EDGE_CURVE('',#114,#114,#83,.T.);
#142=EDGE_CURVE('',#115,#116,#84,.T.);
#143=EDGE_CURVE('',#115,#112,#85,.T.);
#144=EDGE_CURVE('',#116,#115,#86,.T.);
#145=EDGE_CURVE('',#117,#118,#87,.T.);
#146=EDGE_CURVE('',#118,#117,#88,.T.);
#147=EDGE_CURVE('',#118,#116,#64,.T.);
#148=EDGE_CURVE('',#119,#120,#89,.T.);
#149=EDGE_CURVE('',#119,#117,#90,.T.);
#150=EDGE_CURVE('',#120,#119,#91,.T.);
#151=EDGE_CURVE('',#120,#121,#65,.T.);
#152=EDGE_CURVE('',#122,#121,#92,.T.);
#153=EDGE_CURVE('',#121,#122,#93,.T.);
#154=EDGE_CURVE('',#122,#123,#94,.T.);
#155=EDGE_CURVE('',#124,#123,#95,.T.);
#156=EDGE_CURVE('',#123,#124,#96,.T.);
#157=EDGE_CURVE('',#124,#125,#66,.T.);
#158=EDGE_CURVE('',#126,#125,#97,.T.);
#159=EDGE_CURVE('',#125,#126,#98,.T.);
#160=EDGE_CURVE('',#126,#127,#99,.T.);
#161=EDGE_CURVE('',#128,#127,#100,.T.);
#162=EDGE_CURVE('',#127,#128,#101,.T.);
#163=EDGE_CURVE('',#129,#129,#102,.T.);
#164=EDGE_CURVE('',#129,#128,#67,.T.);
#165=EDGE_CURVE('',#129,#130,#68,.T.);
#166=EDGE_CURVE('',#130,#130,#103,.T.);
#167=EDGE_CURVE('',#130,#131,#69,.T.);
#168=EDGE_CURVE('',#132,#131,#104,.T.);
#169=EDGE_CURVE('',#131,#132,#105,.T.);
#170=EDGE_CURVE('',#132,#133,#106,.T.);
#171=EDGE_CURVE('',#134,#133,#107,.T.);
#172=EDGE_CURVE('',#133,#134,#108,.T.);
#173=EDGE_CURVE('',#134,#135,#70,.T.);
#174=EDGE_CURVE('',#135,#135,#109,.T.);
#175=EDGE_CURVE('',#136,#136,#110,.T.);
#176=EDGE_CURVE('',#137,#137,#111,.T.);
#177=EDGE_CURVE('',#137,#136,#71,.T.);
#178=ORIENTED_EDGE('',*,*,#138,.F.);
#179=ORIENTED_EDGE('',*,*,#139,.F.);
#180=ORIENTED_EDGE('',*,*,#140,.T.);
#181=ORIENTED_EDGE('',*,*,#141,.T.);
#182=ORIENTED_EDGE('',*,*,#140,.F.);
#183=ORIENTED_EDGE('',*,*,#142,.F.);
#184=ORIENTED_EDGE('',*,*,#143,.T.);
#185=ORIENTED_EDGE('',*,*,#138,.T.);
#186=ORIENTED_EDGE('',*,*,#139,.T.);
#187=ORIENTED_EDGE('',*,*,#143,.F.);
#188=ORIENTED_EDGE('',*,*,#144,.F.);
#189=ORIENTED_EDGE('',*,*,#145,.F.);
#190=ORIENTED_EDGE('',*,*,#146,.F.);
#191=ORIENTED_EDGE('',*,*,#147,.T.);
#192=ORIENTED_EDGE('',*,*,#144,.T.);
#193=ORIENTED_EDGE('',*,*,#142,.T.);
#194=ORIENTED_EDGE('',*,*,#147,.F.);
#195=ORIENTED_EDGE('',*,*,#148,.F.);
#196=ORIENTED_EDGE('',*,*,#149,.T.);
#197=ORIENTED_EDGE('',*,*,#145,.T.);
#198=ORIENTED_EDGE('',*,*,#146,.T.);
#199=ORIENTED_EDGE('',*,*,#149,.F.);
#200=ORIENTED_EDGE('',*,*,#150,.F.);
#201=ORIENTED_EDGE('',*,*,#148,.T.);
#202=ORIENTED_EDGE('',*,*,#151,.T.);
#203=ORIENTED_EDGE('',*,*,#152,.F.);
#204=ORIENTED_EDGE('',*,*,#153,.F.);
#205=ORIENTED_EDGE('',*,*,#151,.F.);
#206=ORIENTED_EDGE('',*,*,#150,.T.);
#207=ORIENTED_EDGE('',*,*,#152,.T.);
#208=ORIENTED_EDGE('',*,*,#153,.T.);
#209=ORIENTED_EDGE('',*,*,#154,.T.);
#210=ORIENTED_EDGE('',*,*,#155,.F.);
#211=ORIENTED_EDGE('',*,*,#156,.F.);
#212=ORIENTED_EDGE('',*,*,#154,.F.);
#213=ORIENTED_EDGE('',*,*,#156,.T.);
#214=ORIENTED_EDGE('',*,*,#157,.T.);
#215=ORIENTED_EDGE('',*,*,#158,.F.);
#216=ORIENTED_EDGE('',*,*,#159,.F.);
#217=ORIENTED_EDGE('',*,*,#157,.F.);
#218=ORIENTED_EDGE('',*,*,#155,.T.);
#219=ORIENTED_EDGE('',*,*,#158,.T.);
#220=ORIENTED_EDGE('',*,*,#159,.T.);
#221=ORIENTED_EDGE('',*,*,#160,.T.);
#222=ORIENTED_EDGE('',*,*,#161,.F.);
#223=ORIENTED_EDGE('',*,*,#162,.F.);
#224=ORIENTED_EDGE('',*,*,#160,.F.);
#225=ORIENTED_EDGE('',*,*,#163,.F.);
#226=ORIENTED_EDGE('',*,*,#164,.T.);
#227=ORIENTED_EDGE('',*,*,#161,.T.);
#228=ORIENTED_EDGE('',*,*,#162,.T.);
#229=ORIENTED_EDGE('',*,*,#164,.F.);
#230=ORIENTED_EDGE('',*,*,#163,.T.);
#231=ORIENTED_EDGE('',*,*,#165,.T.);
#232=ORIENTED_EDGE('',*,*,#166,.F.);
#233=ORIENTED_EDGE('',*,*,#165,.F.);
#234=ORIENTED_EDGE('',*,*,#166,.T.);
#235=ORIENTED_EDGE('',*,*,#167,.T.);
#236=ORIENTED_EDGE('',*,*,#168,.F.);
#237=ORIENTED_EDGE('',*,*,#169,.F.);
#238=ORIENTED_EDGE('',*,*,#167,.F.);
#239=ORIENTED_EDGE('',*,*,#168,.T.);
#240=ORIENTED_EDGE('',*,*,#169,.T.);
#241=ORIENTED_EDGE('',*,*,#170,.T.);
#242=ORIENTED_EDGE('',*,*,#171,.F.);
#243=ORIENTED_EDGE('',*,*,#172,.F.);
#244=ORIENTED_EDGE('',*,*,#170,.F.);
#245=ORIENTED_EDGE('',*,*,#172,.T.);
#246=ORIENTED_EDGE('',*,*,#173,.T.);
#247=ORIENTED_EDGE('',*,*,#174,.F.);
#248=ORIENTED_EDGE('',*,*,#173,.F.);
#249=ORIENTED_EDGE('',*,*,#171,.T.);
#250=ORIENTED_EDGE('',*,*,#175,.F.);
#251=ORIENTED_EDGE('',*,*,#174,.T.);
#252=ORIENTED_EDGE('',*,*,#176,.F.);
#253=ORIENTED_EDGE('',*,*,#177,.T.);
#254=ORIENTED_EDGE('',*,*,#175,.T.);
#255=ORIENTED_EDGE('',*,*,#177,.F.);
#256=ORIENTED_EDGE('',*,*,#176,.T.);
#257=ORIENTED_EDGE('',*,*,#141,.F.);
#258=CYLINDRICAL_SURFACE('',#301,30.1000000000001);
#259=CYLINDRICAL_SURFACE('',#323,23.);
#260=CYLINDRICAL_SURFACE('',#332,17.5000000000002);
#261=CYLINDRICAL_SURFACE('',#345,33.);
#262=ADVANCED_FACE('',(#29),#258,.T.);
#263=ADVANCED_FACE('',(#30),#24,.T.);
#264=ADVANCED_FACE('',(#31),#19,.T.);
#265=ADVANCED_FACE('',(#32),#25,.T.);
#266=ADVANCED_FACE('',(#33),#20,.F.);
#267=ADVANCED_FACE('',(#34),#26,.F.);
#268=ADVANCED_FACE('',(#35),#259,.F.);
#269=ADVANCED_FACE('',(#36),#27,.F.);
#270=ADVANCED_FACE('',(#37),#21,.T.);
#271=ADVANCED_FACE('',(#38),#260,.F.);
#272=ADVANCED_FACE('',(#39),#22,.F.);
#273=ADVANCED_FACE('',(#40),#28,.F.);
#274=ADVANCED_FACE('',(#41),#23,.F.);
#275=ADVANCED_FACE('',(#42,#15),#17,.T.);
#276=ADVANCED_FACE('',(#43),#261,.T.);
#277=ADVANCED_FACE('',(#44,#16),#18,.T.);
#278=CLOSED_SHELL('',(#262,#263,#264,#265,#266,#267,#268,#269,#270,#271,
#272,#273,#274,#275,#276,#277));
#279=DERIVED_UNIT_ELEMENT(#282,1.);
#280=DERIVED_UNIT_ELEMENT(#541,-3.);
#281=DIMENSIONAL_EXPONENTS(0.,1.,0.,0.,0.,0.,0.);
#282=(
CONVERSION_BASED_UNIT('gram',#284)
MASS_UNIT()
NAMED_UNIT(#281)
);
#283=(
MASS_UNIT()
NAMED_UNIT(*)
SI_UNIT(.KILO.,.GRAM.)
);
#284=MASS_MEASURE_WITH_UNIT(MASS_MEASURE(0.001),#283);
#285=DERIVED_UNIT((#279,#280));
#286=MEASURE_REPRESENTATION_ITEM('density measure',
POSITIVE_RATIO_MEASURE(1.),#285);
#287=PROPERTY_DEFINITION_REPRESENTATION(#292,#289);
#288=PROPERTY_DEFINITION_REPRESENTATION(#293,#290);
#289=REPRESENTATION('material name',(#291),#538);
#290=REPRESENTATION('density',(#286),#538);
#291=DESCRIPTIVE_REPRESENTATION_ITEM('Generisch','Generisch');
#292=PROPERTY_DEFINITION('material property','material name',#548);
#293=PROPERTY_DEFINITION('material property','density of part',#548);
#294=DATE_TIME_ROLE('creation_date');
#295=APPLIED_DATE_AND_TIME_ASSIGNMENT(#296,#294,(#548));
#296=DATE_AND_TIME(#297,#298);
#297=CALENDAR_DATE(2024,29,5);
#298=LOCAL_TIME(0,0,0.,#299);
#299=COORDINATED_UNIVERSAL_TIME_OFFSET(0,0,.BEHIND.);
#300=AXIS2_PLACEMENT_3D('',#453,#348,#349);
#301=AXIS2_PLACEMENT_3D('',#454,#350,#351);
#302=AXIS2_PLACEMENT_3D('',#457,#352,#353);
#303=AXIS2_PLACEMENT_3D('',#458,#354,#355);
#304=AXIS2_PLACEMENT_3D('',#461,#357,#358);
#305=AXIS2_PLACEMENT_3D('',#462,#359,#360);
#306=AXIS2_PLACEMENT_3D('',#465,#361,#362);
#307=AXIS2_PLACEMENT_3D('',#466,#363,#364);
#308=AXIS2_PLACEMENT_3D('',#467,#365,#366);
#309=AXIS2_PLACEMENT_3D('',#468,#367,#368);
#310=AXIS2_PLACEMENT_3D('',#471,#369,#370);
#311=AXIS2_PLACEMENT_3D('',#472,#371,#372);
#312=AXIS2_PLACEMENT_3D('',#474,#374,#375);
#313=AXIS2_PLACEMENT_3D('',#477,#376,#377);
#314=AXIS2_PLACEMENT_3D('',#478,#378,#379);
#315=AXIS2_PLACEMENT_3D('',#479,#380,#381);
#316=AXIS2_PLACEMENT_3D('',#480,#382,#383);
#317=AXIS2_PLACEMENT_3D('',#484,#385,#386);
#318=AXIS2_PLACEMENT_3D('',#485,#387,#388);
#319=AXIS2_PLACEMENT_3D('',#486,#389,#390);
#320=AXIS2_PLACEMENT_3D('',#488,#391,#392);
#321=AXIS2_PLACEMENT_3D('',#490,#393,#394);
#322=AXIS2_PLACEMENT_3D('',#491,#395,#396);
#323=AXIS2_PLACEMENT_3D('',#492,#397,#398);
#324=AXIS2_PLACEMENT_3D('',#496,#400,#401);
#325=AXIS2_PLACEMENT_3D('',#497,#402,#403);
#326=AXIS2_PLACEMENT_3D('',#498,#404,#405);
#327=AXIS2_PLACEMENT_3D('',#500,#406,#407);
#328=AXIS2_PLACEMENT_3D('',#502,#408,#409);
#329=AXIS2_PLACEMENT_3D('',#503,#410,#411);
#330=AXIS2_PLACEMENT_3D('',#504,#412,#413);
#331=AXIS2_PLACEMENT_3D('',#506,#414,#415);
#332=AXIS2_PLACEMENT_3D('',#508,#417,#418);
#333=AXIS2_PLACEMENT_3D('',#511,#420,#421);
#334=AXIS2_PLACEMENT_3D('',#512,#422,#423);
#335=AXIS2_PLACEMENT_3D('',#516,#425,#426);
#336=AXIS2_PLACEMENT_3D('',#517,#427,#428);
#337=AXIS2_PLACEMENT_3D('',#518,#429,#430);
#338=AXIS2_PLACEMENT_3D('',#520,#431,#432);
#339=AXIS2_PLACEMENT_3D('',#522,#433,#434);
#340=AXIS2_PLACEMENT_3D('',#523,#435,#436);
#341=AXIS2_PLACEMENT_3D('',#524,#437,#438);
#342=AXIS2_PLACEMENT_3D('',#527,#440,#441);
#343=AXIS2_PLACEMENT_3D('',#528,#442,#443);
#344=AXIS2_PLACEMENT_3D('',#530,#444,#445);
#345=AXIS2_PLACEMENT_3D('',#531,#446,#447);
#346=AXIS2_PLACEMENT_3D('',#533,#448,#449);
#347=AXIS2_PLACEMENT_3D('',#535,#451,#452);
#348=DIRECTION('axis',(0.,0.,1.));
#349=DIRECTION('refdir',(1.,0.,0.));
#350=DIRECTION('center_axis',(0.,-1.,0.));
#351=DIRECTION('ref_axis',(-1.,0.,0.));
#352=DIRECTION('center_axis',(0.,-1.,0.));
#353=DIRECTION('ref_axis',(1.,0.,0.));
#354=DIRECTION('center_axis',(0.,-1.,0.));
#355=DIRECTION('ref_axis',(1.,0.,0.));
#356=DIRECTION('',(0.,1.,0.));
#357=DIRECTION('center_axis',(0.,-1.,0.));
#358=DIRECTION('ref_axis',(1.,0.,0.));
#359=DIRECTION('center_axis',(0.,-1.,0.));
#360=DIRECTION('ref_axis',(0.,0.,-1.));
#361=DIRECTION('center_axis',(0.,-1.,0.));
#362=DIRECTION('ref_axis',(1.,0.,0.));
#363=DIRECTION('center_axis',(-1.,0.,-1.22464679914735E-16));
#364=DIRECTION('ref_axis',(-1.22464679914735E-16,0.,1.));
#365=DIRECTION('center_axis',(0.,-1.,0.));
#366=DIRECTION('ref_axis',(1.,0.,0.));
#367=DIRECTION('center_axis',(0.,1.,0.));
#368=DIRECTION('ref_axis',(-1.,0.,0.));
#369=DIRECTION('center_axis',(0.,-1.,0.));
#370=DIRECTION('ref_axis',(1.,0.,0.));
#371=DIRECTION('center_axis',(0.,-1.,0.));
#372=DIRECTION('ref_axis',(1.,0.,0.));
#373=DIRECTION('',(0.978147600733804,0.207911690817765,1.19788532833232E-16));
#374=DIRECTION('center_axis',(0.,-1.,0.));
#375=DIRECTION('ref_axis',(0.,0.,-1.));
#376=DIRECTION('center_axis',(0.,-1.,0.));
#377=DIRECTION('ref_axis',(1.,0.,0.));
#378=DIRECTION('center_axis',(-1.,0.,-1.22464679914735E-16));
#379=DIRECTION('ref_axis',(-1.22464679914735E-16,0.,1.));
#380=DIRECTION('center_axis',(0.,-1.,0.));
#381=DIRECTION('ref_axis',(1.,0.,0.));
#382=DIRECTION('center_axis',(0.,1.,0.));
#383=DIRECTION('ref_axis',(-1.,0.,0.));
#384=DIRECTION('',(0.739654003347236,0.672987336680569,9.05814907675719E-17));
#385=DIRECTION('center_axis',(0.,-1.,0.));
#386=DIRECTION('ref_axis',(1.,0.,0.));
#387=DIRECTION('center_axis',(0.,-1.,0.));
#388=DIRECTION('ref_axis',(1.,0.,0.));
#389=DIRECTION('center_axis',(0.,-1.,0.));
#390=DIRECTION('ref_axis',(0.,0.,-1.));
#391=DIRECTION('center_axis',(-1.,0.,-1.22464679914735E-16));
#392=DIRECTION('ref_axis',(-1.22464679914735E-16,0.,1.));
#393=DIRECTION('center_axis',(0.,-1.,0.));
#394=DIRECTION('ref_axis',(1.,0.,0.));
#395=DIRECTION('center_axis',(0.,-1.,0.));
#396=DIRECTION('ref_axis',(1.,0.,0.));
#397=DIRECTION('center_axis',(0.,-1.,0.));
#398=DIRECTION('ref_axis',(-1.,0.,0.));
#399=DIRECTION('',(0.,1.,0.));
#400=DIRECTION('center_axis',(0.,-1.,0.));
#401=DIRECTION('ref_axis',(1.,0.,0.));
#402=DIRECTION('center_axis',(0.,-1.,0.));
#403=DIRECTION('ref_axis',(1.,0.,0.));
#404=DIRECTION('center_axis',(0.,-1.,0.));
#405=DIRECTION('ref_axis',(0.,0.,-1.));
#406=DIRECTION('center_axis',(-1.,0.,-1.22464679914735E-16));
#407=DIRECTION('ref_axis',(-1.22464679914735E-16,0.,1.));
#408=DIRECTION('center_axis',(0.,-1.,0.));
#409=DIRECTION('ref_axis',(1.,0.,0.));
#410=DIRECTION('center_axis',(0.,-1.,0.));
#411=DIRECTION('ref_axis',(1.,0.,0.));
#412=DIRECTION('center_axis',(0.,1.,0.));
#413=DIRECTION('ref_axis',(-1.,0.,0.));
#414=DIRECTION('center_axis',(0.,-1.,0.));
#415=DIRECTION('ref_axis',(1.,0.,0.));
#416=DIRECTION('',(0.864693105003071,0.502300541668181,1.0589436432868E-16));
#417=DIRECTION('center_axis',(0.,-1.,0.));
#418=DIRECTION('ref_axis',(-1.,0.,0.));
#419=DIRECTION('',(0.,1.,0.));
#420=DIRECTION('center_axis',(0.,-1.,0.));
#421=DIRECTION('ref_axis',(1.,0.,0.));
#422=DIRECTION('center_axis',(0.,1.,0.));
#423=DIRECTION('ref_axis',(-1.,0.,0.));
#424=DIRECTION('',(0.707106781186538,0.707106781186557,8.65956056235481E-17));
#425=DIRECTION('center_axis',(0.,-1.,0.));
#426=DIRECTION('ref_axis',(1.,0.,0.));
#427=DIRECTION('center_axis',(0.,-1.,0.));
#428=DIRECTION('ref_axis',(1.,0.,0.));
#429=DIRECTION('center_axis',(0.,-1.,0.));
#430=DIRECTION('ref_axis',(0.,0.,-1.));
#431=DIRECTION('center_axis',(-1.,0.,-1.22464679914735E-16));
#432=DIRECTION('ref_axis',(-1.22464679914735E-16,0.,1.));
#433=DIRECTION('center_axis',(0.,-1.,0.));
#434=DIRECTION('ref_axis',(1.,0.,0.));
#435=DIRECTION('center_axis',(0.,-1.,0.));
#436=DIRECTION('ref_axis',(1.,0.,0.));
#437=DIRECTION('center_axis',(0.,1.,0.));
#438=DIRECTION('ref_axis',(-1.,0.,0.));
#439=DIRECTION('',(0.18428853505018,0.982872186934323,2.25688364568758E-17));
#440=DIRECTION('center_axis',(0.,-1.,0.));
#441=DIRECTION('ref_axis',(1.,0.,0.));
#442=DIRECTION('center_axis',(0.,1.,0.));
#443=DIRECTION('ref_axis',(0.,0.,1.));
#444=DIRECTION('center_axis',(0.,-1.,0.));
#445=DIRECTION('ref_axis',(1.,0.,0.));
#446=DIRECTION('center_axis',(0.,-1.,0.));
#447=DIRECTION('ref_axis',(-1.,0.,0.));
#448=DIRECTION('center_axis',(0.,-1.,0.));
#449=DIRECTION('ref_axis',(1.,0.,0.));
#450=DIRECTION('',(0.,1.,0.));
#451=DIRECTION('center_axis',(0.,-1.,0.));
#452=DIRECTION('ref_axis',(0.,0.,-1.));
#453=CARTESIAN_POINT('',(0.,0.,0.));
#454=CARTESIAN_POINT('Origin',(0.,10.7080345581139,0.));
#455=CARTESIAN_POINT('',(-3.68618686543355E-15,3.41606911622782,30.1000000000001));
#456=CARTESIAN_POINT('',(30.1000000000001,3.41606911622782,3.68618686543355E-15));
#457=CARTESIAN_POINT('Origin',(0.,3.41606911622782,0.));
#458=CARTESIAN_POINT('Origin',(0.,3.41606911622782,0.));
#459=CARTESIAN_POINT('',(30.1000000000001,18.,3.68618686543355E-15));
#460=CARTESIAN_POINT('',(30.1000000000001,10.7080345581139,3.68618686543355E-15));
#461=CARTESIAN_POINT('Origin',(0.,18.,0.));
#462=CARTESIAN_POINT('Origin',(0.,3.41606911622782,0.));
#463=CARTESIAN_POINT('',(-3.64738572893428E-15,3.02481007593443,29.7831646763274));
#464=CARTESIAN_POINT('',(29.7831646763274,3.02481007593444,3.64738572893428E-15));
#465=CARTESIAN_POINT('Origin',(0.,3.02481007593443,0.));
#466=CARTESIAN_POINT('Origin',(-3.63720099346767E-15,3.41606911622782,29.7000000000003));
#467=CARTESIAN_POINT('Origin',(0.,3.02481007593443,0.));
#468=CARTESIAN_POINT('Origin',(0.,1.51786813778378,0.));
#469=CARTESIAN_POINT('',(-1.91093345801168E-15,0.0109261996331278,15.603955845409));
#470=CARTESIAN_POINT('',(15.603955845409,0.0109261996331264,1.91093345801168E-15));
#471=CARTESIAN_POINT('Origin',(0.,0.0109261996331278,0.));
#472=CARTESIAN_POINT('Origin',(0.,0.0109261996331278,0.));
#473=CARTESIAN_POINT('',(22.6935602608682,1.51786813778378,2.77915959347298E-15));
#474=CARTESIAN_POINT('Origin',(0.,0.5,0.));
#475=CARTESIAN_POINT('',(-1.85699394929173E-15,0.869827001673327,15.1635063316594));
#476=CARTESIAN_POINT('',(15.1635063316594,0.869827001673325,1.85699394929173E-15));
#477=CARTESIAN_POINT('Origin',(0.,0.869827001673327,0.));
#478=CARTESIAN_POINT('Origin',(-1.8982025386784E-15,0.5,15.5));
#479=CARTESIAN_POINT('Origin',(0.,0.869827001673327,0.));
#480=CARTESIAN_POINT('Origin',(0.,4.28614435989221,0.));
#481=CARTESIAN_POINT('',(22.6729873366805,7.7024617181111,2.77664013689743E-15));
#482=CARTESIAN_POINT('',(18.91824683417,4.28614435989221,2.31681704309458E-15));
#483=CARTESIAN_POINT('',(-2.77664013689743E-15,7.7024617181111,22.6729873366805));
#484=CARTESIAN_POINT('Origin',(0.,7.7024617181111,0.));
#485=CARTESIAN_POINT('Origin',(0.,7.7024617181111,0.));
#486=CARTESIAN_POINT('Origin',(0.,8.44211572145836,0.));
#487=CARTESIAN_POINT('',(-2.81668763803891E-15,8.44211572145835,23.));
#488=CARTESIAN_POINT('Origin',(-2.69422295812418E-15,8.44211572145836,22.));
#489=CARTESIAN_POINT('',(23.,8.44211572145835,2.81668763803891E-15));
#490=CARTESIAN_POINT('Origin',(0.,8.44211572145835,0.));
#491=CARTESIAN_POINT('Origin',(0.,8.44211572145835,0.));
#492=CARTESIAN_POINT('Origin',(0.,11.2210578607292,0.));
#493=CARTESIAN_POINT('',(23.,14.,2.81668763803891E-15));
#494=CARTESIAN_POINT('',(23.,11.2210578607292,2.81668763803891E-15));
#495=CARTESIAN_POINT('',(-2.81668763803891E-15,14.,23.));
#496=CARTESIAN_POINT('Origin',(0.,14.,0.));
#497=CARTESIAN_POINT('Origin',(0.,14.,0.));
#498=CARTESIAN_POINT('Origin',(0.,13.9999999999999,0.));
#499=CARTESIAN_POINT('',(-2.74309613605048E-15,14.3458772420012,22.3990797833329));
#500=CARTESIAN_POINT('Origin',(-2.76770176607302E-15,13.9999999999999,22.6));
#501=CARTESIAN_POINT('',(22.3990797833329,14.3458772420012,2.74309613605048E-15));
#502=CARTESIAN_POINT('Origin',(0.,14.3458772420012,0.));
#503=CARTESIAN_POINT('Origin',(0.,14.3458772420012,0.));
#504=CARTESIAN_POINT('Origin',(0.,12.9229386210006,0.));
#505=CARTESIAN_POINT('',(17.5000000000002,11.5,2.1431318985079E-15));
#506=CARTESIAN_POINT('Origin',(0.,11.5,0.));
#507=CARTESIAN_POINT('',(19.9495398916665,12.9229386210006,2.44311401727919E-15));
#508=CARTESIAN_POINT('Origin',(0.,12.,0.));
#509=CARTESIAN_POINT('',(17.5000000000002,12.5,2.1431318985079E-15));
#510=CARTESIAN_POINT('',(17.5000000000002,12.,2.1431318985079E-15));
#511=CARTESIAN_POINT('Origin',(0.,12.5,0.));
#512=CARTESIAN_POINT('Origin',(0.,15.2062493576376,0.));
#513=CARTESIAN_POINT('',(22.9124987152752,17.9124987152752,2.80597182121297E-15));
#514=CARTESIAN_POINT('',(20.2062493576377,15.2062493576376,2.47455185986043E-15));
#515=CARTESIAN_POINT('',(-2.80597182121297E-15,17.9124987152752,22.9124987152752));
#516=CARTESIAN_POINT('Origin',(0.,17.9124987152752,0.));
#517=CARTESIAN_POINT('Origin',(0.,17.9124987152752,0.));
#518=CARTESIAN_POINT('Origin',(0.,18.1953414277498,0.));
#519=CARTESIAN_POINT('',(-2.81948043007155E-15,18.1216260137297,23.0228048775743));
#520=CARTESIAN_POINT('Origin',(-2.77133357896355E-15,18.1953414277498,22.6296560028006));
#521=CARTESIAN_POINT('',(23.0228048775743,18.1216260137297,2.81948043007155E-15));
#522=CARTESIAN_POINT('Origin',(0.,18.1216260137297,0.));
#523=CARTESIAN_POINT('Origin',(0.,18.1216260137297,0.));
#524=CARTESIAN_POINT('Origin',(0.,20.0608130068649,0.));
#525=CARTESIAN_POINT('',(23.75,22.,2.90853614797496E-15));
#526=CARTESIAN_POINT('',(23.3864024387872,20.0608130068649,2.86400828902326E-15));
#527=CARTESIAN_POINT('Origin',(0.,22.,0.));
#528=CARTESIAN_POINT('Origin',(-33.,22.,0.));
#529=CARTESIAN_POINT('',(33.,22.,4.04133443718627E-15));
#530=CARTESIAN_POINT('Origin',(0.,22.,0.));
#531=CARTESIAN_POINT('Origin',(0.,20.,0.));
#532=CARTESIAN_POINT('',(33.,18.,4.04133443718627E-15));
#533=CARTESIAN_POINT('Origin',(0.,18.,0.));
#534=CARTESIAN_POINT('',(33.,20.,4.04133443718627E-15));
#535=CARTESIAN_POINT('Origin',(-30.1000000000001,18.,0.));
#536=UNCERTAINTY_MEASURE_WITH_UNIT(LENGTH_MEASURE(0.01),#540,
'DISTANCE_ACCURACY_VALUE',
'Maximum model space distance between geometric entities at asserted c
onnectivities');
#537=UNCERTAINTY_MEASURE_WITH_UNIT(LENGTH_MEASURE(0.01),#540,
'DISTANCE_ACCURACY_VALUE',
'Maximum model space distance between geometric entities at asserted c
onnectivities');
#538=(
GEOMETRIC_REPRESENTATION_CONTEXT(3)
GLOBAL_UNCERTAINTY_ASSIGNED_CONTEXT((#536))
GLOBAL_UNIT_ASSIGNED_CONTEXT((#540,#542,#543))
REPRESENTATION_CONTEXT('','3D')
);
#539=(
GEOMETRIC_REPRESENTATION_CONTEXT(3)
GLOBAL_UNCERTAINTY_ASSIGNED_CONTEXT((#537))
GLOBAL_UNIT_ASSIGNED_CONTEXT((#540,#542,#543))
REPRESENTATION_CONTEXT('','3D')
);
#540=(
LENGTH_UNIT()
NAMED_UNIT(*)
SI_UNIT(.MILLI.,.METRE.)
);
#541=(
LENGTH_UNIT()
NAMED_UNIT(*)
SI_UNIT(.CENTI.,.METRE.)
);
#542=(
NAMED_UNIT(*)
PLANE_ANGLE_UNIT()
SI_UNIT($,.RADIAN.)
);
#543=(
NAMED_UNIT(*)
SI_UNIT($,.STERADIAN.)
SOLID_ANGLE_UNIT()
);
#544=SHAPE_DEFINITION_REPRESENTATION(#545,#546);
#545=PRODUCT_DEFINITION_SHAPE('',$,#548);
#546=SHAPE_REPRESENTATION('',(#300),#538);
#547=PRODUCT_DEFINITION_CONTEXT('part definition',#552,'design');
#548=PRODUCT_DEFINITION('881250z','881250z',#549,#547);
#549=PRODUCT_DEFINITION_FORMATION('',$,#554);
#550=PRODUCT_RELATED_PRODUCT_CATEGORY('881250z','881250z',(#554));
#551=APPLICATION_PROTOCOL_DEFINITION('international standard',
'automotive_design',2009,#552);
#552=APPLICATION_CONTEXT(
'Core Data for Automotive Mechanical Design Process');
#553=PRODUCT_CONTEXT('part definition',#552,'mechanical');
#554=PRODUCT('881250z','881250z',$,(#553));
#555=PRESENTATION_STYLE_ASSIGNMENT((#556));
#556=SURFACE_STYLE_USAGE(.BOTH.,#559);
#557=SURFACE_STYLE_RENDERING_WITH_PROPERTIES($,#563,(#558));
#558=SURFACE_STYLE_TRANSPARENT(0.);
#559=SURFACE_SIDE_STYLE('',(#560,#557));
#560=SURFACE_STYLE_FILL_AREA(#561);
#561=FILL_AREA_STYLE('',(#562));
#562=FILL_AREA_STYLE_COLOUR('',#563);
#563=COLOUR_RGB('',0.749019607843137,0.749019607843137,0.749019607843137);
ENDSEC;
END-ISO-10303-21;
