ISO-10303-21;
HEADER;
/* Generated by software containing ST-Developer
 * from STEP Tools, Inc. (www.steptools.com) 
 */

FILE_DESCRIPTION(
/* description */ (''),
/* implementation_level */ '2;1');

FILE_NAME(
/* name */ '881240z.stp',
/* time_stamp */ '2024-05-29T15:57:21+02:00',
/* author */ ('corinna'),
/* organization */ (''),
/* preprocessor_version */ 'ST-DEVELOPER v20',
/* originating_system */ 'Autodesk Inventor 2024',
/* authorisation */ '');

FILE_SCHEMA (('AUTOMOTIVE_DESIGN { 1 0 10303 214 3 1 1 }'));
ENDSEC;

DATA;
#10=MECHANICAL_DESIGN_GEOMETRIC_PRESENTATION_REPRESENTATION('',(#13),#611);
#11=SHAPE_REPRESENTATION_RELATIONSHIP('SRR','None',#618,#12);
#12=ADVANCED_BREP_SHAPE_REPRESENTATION('',(#14),#610);
#13=STYLED_ITEM('',(#627),#14);
#14=MANIFOLD_SOLID_BREP('Volumenk\X\F6rper1',#314);
#15=CONICAL_SURFACE('',#351,20.1357620968502,1.48352986419519);
#16=CONICAL_SURFACE('',#358,13.9172259622326,0.833279137016109);
#17=CONICAL_SURFACE('',#372,14.9521895327669,1.04499455386081);
#18=CONICAL_SURFACE('',#376,15.2132620654846,0.741947268005908);
#19=CONICAL_SURFACE('',#383,18.3863917202599,0.211093333222793);
#20=LINE('',#530,#29);
#21=LINE('',#542,#30);
#22=LINE('',#551,#31);
#23=LINE('',#563,#32);
#24=LINE('',#576,#33);
#25=LINE('',#579,#34);
#26=LINE('',#583,#35);
#27=LINE('',#595,#36);
#28=LINE('',#605,#37);
#29=VECTOR('',#414,30.0999999999999);
#30=VECTOR('',#429,20.1357620968502);
#31=VECTOR('',#440,13.9172259622326);
#32=VECTOR('',#455,18.0051417202601);
#33=VECTOR('',#472,14.9521895327669);
#34=VECTOR('',#475,12.5);
#35=VECTOR('',#480,15.2132620654846);
#36=VECTOR('',#495,18.3863917202599);
#37=VECTOR('',#508,33.);
#38=CYLINDRICAL_SURFACE('',#344,30.0999999999999);
#39=CYLINDRICAL_SURFACE('',#365,18.0051417202601);
#40=CYLINDRICAL_SURFACE('',#374,12.5);
#41=CYLINDRICAL_SURFACE('',#387,33.);
#42=TOROIDAL_SURFACE('',#340,30.1999999999999,0.1);
#43=TOROIDAL_SURFACE('',#347,29.6999999999999,0.4);
#44=TOROIDAL_SURFACE('',#354,10.4930840252275,0.5);
#45=TOROIDAL_SURFACE('',#361,17.0051417202601,1.);
#46=TOROIDAL_SURFACE('',#368,17.60514172026,0.4);
#47=TOROIDAL_SURFACE('',#379,17.6316624748888,0.4);
#48=TOROIDAL_SURFACE('',#390,32.5999999999999,0.4);
#49=FACE_BOUND('',#70,.T.);
#50=FACE_BOUND('',#86,.T.);
#51=FACE_OUTER_BOUND('',#69,.T.);
#52=FACE_OUTER_BOUND('',#71,.T.);
#53=FACE_OUTER_BOUND('',#72,.T.);
#54=FACE_OUTER_BOUND('',#73,.T.);
#55=FACE_OUTER_BOUND('',#74,.T.);
#56=FACE_OUTER_BOUND('',#75,.T.);
#57=FACE_OUTER_BOUND('',#76,.T.);
#58=FACE_OUTER_BOUND('',#77,.T.);
#59=FACE_OUTER_BOUND('',#78,.T.);
#60=FACE_OUTER_BOUND('',#79,.T.);
#61=FACE_OUTER_BOUND('',#80,.T.);
#62=FACE_OUTER_BOUND('',#81,.T.);
#63=FACE_OUTER_BOUND('',#82,.T.);
#64=FACE_OUTER_BOUND('',#83,.T.);
#65=FACE_OUTER_BOUND('',#84,.T.);
#66=FACE_OUTER_BOUND('',#85,.T.);
#67=FACE_OUTER_BOUND('',#87,.T.);
#68=FACE_OUTER_BOUND('',#88,.T.);
#69=EDGE_LOOP('',(#202));
#70=EDGE_LOOP('',(#203));
#71=EDGE_LOOP('',(#204,#205,#206,#207,#208));
#72=EDGE_LOOP('',(#209,#210,#211,#212,#213,#214));
#73=EDGE_LOOP('',(#215,#216,#217,#218,#219,#220));
#74=EDGE_LOOP('',(#221,#222,#223,#224,#225,#226));
#75=EDGE_LOOP('',(#227,#228,#229,#230,#231,#232));
#76=EDGE_LOOP('',(#233,#234,#235,#236,#237,#238));
#77=EDGE_LOOP('',(#239,#240,#241,#242,#243,#244));
#78=EDGE_LOOP('',(#245,#246,#247,#248,#249,#250));
#79=EDGE_LOOP('',(#251,#252,#253,#254,#255,#256));
#80=EDGE_LOOP('',(#257,#258,#259,#260,#261));
#81=EDGE_LOOP('',(#262,#263,#264,#265));
#82=EDGE_LOOP('',(#266,#267,#268,#269,#270));
#83=EDGE_LOOP('',(#271,#272,#273,#274,#275,#276));
#84=EDGE_LOOP('',(#277,#278,#279,#280,#281));
#85=EDGE_LOOP('',(#282));
#86=EDGE_LOOP('',(#283));
#87=EDGE_LOOP('',(#284,#285,#286,#287,#288));
#88=EDGE_LOOP('',(#289,#290,#291,#292,#293));
#89=CIRCLE('',#338,32.5999999999999);
#90=CIRCLE('',#339,30.1999999999999);
#91=CIRCLE('',#341,0.1);
#92=CIRCLE('',#342,30.0999999999999);
#93=CIRCLE('',#343,30.0999999999999);
#94=CIRCLE('',#345,30.0999999999999);
#95=CIRCLE('',#346,30.0999999999999);
#96=CIRCLE('',#348,29.734862297099);
#97=CIRCLE('',#349,0.4);
#98=CIRCLE('',#350,29.734862297099);
#99=CIRCLE('',#352,10.5366618966013);
#100=CIRCLE('',#353,10.5366618966013);
#101=CIRCLE('',#355,10.15685784625);
#102=CIRCLE('',#356,0.5);
#103=CIRCLE('',#357,10.15685784625);
#104=CIRCLE('',#359,17.6775940782152);
#105=CIRCLE('',#360,17.6775940782152);
#106=CIRCLE('',#362,1.);
#107=CIRCLE('',#363,18.0051417202601);
#108=CIRCLE('',#364,18.0051417202601);
#109=CIRCLE('',#366,18.0051417202601);
#110=CIRCLE('',#367,18.0051417202601);
#111=CIRCLE('',#369,0.4);
#112=CIRCLE('',#370,17.4043790655339);
#113=CIRCLE('',#371,17.4043790655339);
#114=CIRCLE('',#373,12.5);
#115=CIRCLE('',#375,12.5);
#116=CIRCLE('',#377,17.9265241309691);
#117=CIRCLE('',#378,17.9265241309691);
#118=CIRCLE('',#380,0.4);
#119=CIRCLE('',#381,18.0227834405198);
#120=CIRCLE('',#382,18.0227834405198);
#121=CIRCLE('',#384,18.75);
#122=CIRCLE('',#386,33.);
#123=CIRCLE('',#388,33.);
#124=CIRCLE('',#389,33.);
#125=CIRCLE('',#391,0.4);
#126=VERTEX_POINT('',#515);
#127=VERTEX_POINT('',#517);
#128=VERTEX_POINT('',#520);
#129=VERTEX_POINT('',#522);
#130=VERTEX_POINT('',#526);
#131=VERTEX_POINT('',#527);
#132=VERTEX_POINT('',#532);
#133=VERTEX_POINT('',#533);
#134=VERTEX_POINT('',#538);
#135=VERTEX_POINT('',#539);
#136=VERTEX_POINT('',#544);
#137=VERTEX_POINT('',#545);
#138=VERTEX_POINT('',#550);
#139=VERTEX_POINT('',#552);
#140=VERTEX_POINT('',#556);
#141=VERTEX_POINT('',#558);
#142=VERTEX_POINT('',#562);
#143=VERTEX_POINT('',#564);
#144=VERTEX_POINT('',#568);
#145=VERTEX_POINT('',#570);
#146=VERTEX_POINT('',#574);
#147=VERTEX_POINT('',#578);
#148=VERTEX_POINT('',#582);
#149=VERTEX_POINT('',#584);
#150=VERTEX_POINT('',#588);
#151=VERTEX_POINT('',#590);
#152=VERTEX_POINT('',#594);
#153=VERTEX_POINT('',#598);
#154=VERTEX_POINT('',#601);
#155=VERTEX_POINT('',#602);
#156=EDGE_CURVE('',#126,#126,#89,.T.);
#157=EDGE_CURVE('',#127,#127,#90,.T.);
#158=EDGE_CURVE('',#127,#128,#91,.T.);
#159=EDGE_CURVE('',#129,#128,#92,.T.);
#160=EDGE_CURVE('',#128,#129,#93,.T.);
#161=EDGE_CURVE('',#130,#131,#94,.T.);
#162=EDGE_CURVE('',#131,#130,#95,.T.);
#163=EDGE_CURVE('',#131,#129,#20,.T.);
#164=EDGE_CURVE('',#132,#133,#96,.T.);
#165=EDGE_CURVE('',#132,#130,#97,.T.);
#166=EDGE_CURVE('',#133,#132,#98,.T.);
#167=EDGE_CURVE('',#134,#135,#99,.T.);
#168=EDGE_CURVE('',#135,#134,#100,.T.);
#169=EDGE_CURVE('',#135,#133,#21,.T.);
#170=EDGE_CURVE('',#136,#137,#101,.T.);
#171=EDGE_CURVE('',#136,#134,#102,.T.);
#172=EDGE_CURVE('',#137,#136,#103,.T.);
#173=EDGE_CURVE('',#137,#138,#22,.T.);
#174=EDGE_CURVE('',#139,#138,#104,.T.);
#175=EDGE_CURVE('',#138,#139,#105,.T.);
#176=EDGE_CURVE('',#139,#140,#106,.T.);
#177=EDGE_CURVE('',#141,#140,#107,.T.);
#178=EDGE_CURVE('',#140,#141,#108,.T.);
#179=EDGE_CURVE('',#141,#142,#23,.T.);
#180=EDGE_CURVE('',#143,#142,#109,.T.);
#181=EDGE_CURVE('',#142,#143,#110,.T.);
#182=EDGE_CURVE('',#143,#144,#111,.T.);
#183=EDGE_CURVE('',#145,#144,#112,.T.);
#184=EDGE_CURVE('',#144,#145,#113,.T.);
#185=EDGE_CURVE('',#146,#146,#114,.T.);
#186=EDGE_CURVE('',#146,#145,#24,.T.);
#187=EDGE_CURVE('',#146,#147,#25,.T.);
#188=EDGE_CURVE('',#147,#147,#115,.T.);
#189=EDGE_CURVE('',#147,#148,#26,.T.);
#190=EDGE_CURVE('',#149,#148,#116,.T.);
#191=EDGE_CURVE('',#148,#149,#117,.T.);
#192=EDGE_CURVE('',#149,#150,#118,.T.);
#193=EDGE_CURVE('',#151,#150,#119,.T.);
#194=EDGE_CURVE('',#150,#151,#120,.T.);
#195=EDGE_CURVE('',#151,#152,#27,.T.);
#196=EDGE_CURVE('',#152,#152,#121,.T.);
#197=EDGE_CURVE('',#153,#153,#122,.T.);
#198=EDGE_CURVE('',#154,#155,#123,.T.);
#199=EDGE_CURVE('',#155,#154,#124,.T.);
#200=EDGE_CURVE('',#155,#153,#28,.T.);
#201=EDGE_CURVE('',#126,#154,#125,.T.);
#202=ORIENTED_EDGE('',*,*,#156,.T.);
#203=ORIENTED_EDGE('',*,*,#157,.F.);
#204=ORIENTED_EDGE('',*,*,#157,.T.);
#205=ORIENTED_EDGE('',*,*,#158,.T.);
#206=ORIENTED_EDGE('',*,*,#159,.F.);
#207=ORIENTED_EDGE('',*,*,#160,.F.);
#208=ORIENTED_EDGE('',*,*,#158,.F.);
#209=ORIENTED_EDGE('',*,*,#161,.F.);
#210=ORIENTED_EDGE('',*,*,#162,.F.);
#211=ORIENTED_EDGE('',*,*,#163,.T.);
#212=ORIENTED_EDGE('',*,*,#159,.T.);
#213=ORIENTED_EDGE('',*,*,#160,.T.);
#214=ORIENTED_EDGE('',*,*,#163,.F.);
#215=ORIENTED_EDGE('',*,*,#164,.F.);
#216=ORIENTED_EDGE('',*,*,#165,.T.);
#217=ORIENTED_EDGE('',*,*,#161,.T.);
#218=ORIENTED_EDGE('',*,*,#162,.T.);
#219=ORIENTED_EDGE('',*,*,#165,.F.);
#220=ORIENTED_EDGE('',*,*,#166,.F.);
#221=ORIENTED_EDGE('',*,*,#167,.F.);
#222=ORIENTED_EDGE('',*,*,#168,.F.);
#223=ORIENTED_EDGE('',*,*,#169,.T.);
#224=ORIENTED_EDGE('',*,*,#166,.T.);
#225=ORIENTED_EDGE('',*,*,#164,.T.);
#226=ORIENTED_EDGE('',*,*,#169,.F.);
#227=ORIENTED_EDGE('',*,*,#170,.F.);
#228=ORIENTED_EDGE('',*,*,#171,.T.);
#229=ORIENTED_EDGE('',*,*,#167,.T.);
#230=ORIENTED_EDGE('',*,*,#168,.T.);
#231=ORIENTED_EDGE('',*,*,#171,.F.);
#232=ORIENTED_EDGE('',*,*,#172,.F.);
#233=ORIENTED_EDGE('',*,*,#170,.T.);
#234=ORIENTED_EDGE('',*,*,#173,.T.);
#235=ORIENTED_EDGE('',*,*,#174,.F.);
#236=ORIENTED_EDGE('',*,*,#175,.F.);
#237=ORIENTED_EDGE('',*,*,#173,.F.);
#238=ORIENTED_EDGE('',*,*,#172,.T.);
#239=ORIENTED_EDGE('',*,*,#174,.T.);
#240=ORIENTED_EDGE('',*,*,#175,.T.);
#241=ORIENTED_EDGE('',*,*,#176,.T.);
#242=ORIENTED_EDGE('',*,*,#177,.F.);
#243=ORIENTED_EDGE('',*,*,#178,.F.);
#244=ORIENTED_EDGE('',*,*,#176,.F.);
#245=ORIENTED_EDGE('',*,*,#178,.T.);
#246=ORIENTED_EDGE('',*,*,#179,.T.);
#247=ORIENTED_EDGE('',*,*,#180,.F.);
#248=ORIENTED_EDGE('',*,*,#181,.F.);
#249=ORIENTED_EDGE('',*,*,#179,.F.);
#250=ORIENTED_EDGE('',*,*,#177,.T.);
#251=ORIENTED_EDGE('',*,*,#180,.T.);
#252=ORIENTED_EDGE('',*,*,#181,.T.);
#253=ORIENTED_EDGE('',*,*,#182,.T.);
#254=ORIENTED_EDGE('',*,*,#183,.F.);
#255=ORIENTED_EDGE('',*,*,#184,.F.);
#256=ORIENTED_EDGE('',*,*,#182,.F.);
#257=ORIENTED_EDGE('',*,*,#185,.F.);
#258=ORIENTED_EDGE('',*,*,#186,.T.);
#259=ORIENTED_EDGE('',*,*,#183,.T.);
#260=ORIENTED_EDGE('',*,*,#184,.T.);
#261=ORIENTED_EDGE('',*,*,#186,.F.);
#262=ORIENTED_EDGE('',*,*,#185,.T.);
#263=ORIENTED_EDGE('',*,*,#187,.T.);
#264=ORIENTED_EDGE('',*,*,#188,.F.);
#265=ORIENTED_EDGE('',*,*,#187,.F.);
#266=ORIENTED_EDGE('',*,*,#188,.T.);
#267=ORIENTED_EDGE('',*,*,#189,.T.);
#268=ORIENTED_EDGE('',*,*,#190,.F.);
#269=ORIENTED_EDGE('',*,*,#191,.F.);
#270=ORIENTED_EDGE('',*,*,#189,.F.);
#271=ORIENTED_EDGE('',*,*,#190,.T.);
#272=ORIENTED_EDGE('',*,*,#191,.T.);
#273=ORIENTED_EDGE('',*,*,#192,.T.);
#274=ORIENTED_EDGE('',*,*,#193,.F.);
#275=ORIENTED_EDGE('',*,*,#194,.F.);
#276=ORIENTED_EDGE('',*,*,#192,.F.);
#277=ORIENTED_EDGE('',*,*,#194,.T.);
#278=ORIENTED_EDGE('',*,*,#195,.T.);
#279=ORIENTED_EDGE('',*,*,#196,.F.);
#280=ORIENTED_EDGE('',*,*,#195,.F.);
#281=ORIENTED_EDGE('',*,*,#193,.T.);
#282=ORIENTED_EDGE('',*,*,#197,.F.);
#283=ORIENTED_EDGE('',*,*,#196,.T.);
#284=ORIENTED_EDGE('',*,*,#198,.F.);
#285=ORIENTED_EDGE('',*,*,#199,.F.);
#286=ORIENTED_EDGE('',*,*,#200,.T.);
#287=ORIENTED_EDGE('',*,*,#197,.T.);
#288=ORIENTED_EDGE('',*,*,#200,.F.);
#289=ORIENTED_EDGE('',*,*,#156,.F.);
#290=ORIENTED_EDGE('',*,*,#201,.T.);
#291=ORIENTED_EDGE('',*,*,#198,.T.);
#292=ORIENTED_EDGE('',*,*,#199,.T.);
#293=ORIENTED_EDGE('',*,*,#201,.F.);
#294=PLANE('',#337);
#295=PLANE('',#385);
#296=ADVANCED_FACE('',(#51,#49),#294,.T.);
#297=ADVANCED_FACE('',(#52),#42,.F.);
#298=ADVANCED_FACE('',(#53),#38,.T.);
#299=ADVANCED_FACE('',(#54),#43,.T.);
#300=ADVANCED_FACE('',(#55),#15,.T.);
#301=ADVANCED_FACE('',(#56),#44,.T.);
#302=ADVANCED_FACE('',(#57),#16,.F.);
#303=ADVANCED_FACE('',(#58),#45,.F.);
#304=ADVANCED_FACE('',(#59),#39,.F.);
#305=ADVANCED_FACE('',(#60),#46,.F.);
#306=ADVANCED_FACE('',(#61),#17,.T.);
#307=ADVANCED_FACE('',(#62),#40,.F.);
#308=ADVANCED_FACE('',(#63),#18,.F.);
#309=ADVANCED_FACE('',(#64),#47,.F.);
#310=ADVANCED_FACE('',(#65),#19,.F.);
#311=ADVANCED_FACE('',(#66,#50),#295,.T.);
#312=ADVANCED_FACE('',(#67),#41,.T.);
#313=ADVANCED_FACE('',(#68),#48,.T.);
#314=CLOSED_SHELL('',(#296,#297,#298,#299,#300,#301,#302,#303,#304,#305,
#306,#307,#308,#309,#310,#311,#312,#313));
#315=DERIVED_UNIT_ELEMENT(#318,1.);
#316=DERIVED_UNIT_ELEMENT(#613,-3.);
#317=DIMENSIONAL_EXPONENTS(0.,1.,0.,0.,0.,0.,0.);
#318=(
CONVERSION_BASED_UNIT('gram',#320)
MASS_UNIT()
NAMED_UNIT(#317)
);
#319=(
MASS_UNIT()
NAMED_UNIT(*)
SI_UNIT(.KILO.,.GRAM.)
);
#320=MASS_MEASURE_WITH_UNIT(MASS_MEASURE(0.001),#319);
#321=DERIVED_UNIT((#315,#316));
#322=MEASURE_REPRESENTATION_ITEM('density measure',
POSITIVE_RATIO_MEASURE(1.),#321);
#323=PROPERTY_DEFINITION_REPRESENTATION(#328,#325);
#324=PROPERTY_DEFINITION_REPRESENTATION(#329,#326);
#325=REPRESENTATION('material name',(#327),#610);
#326=REPRESENTATION('density',(#322),#610);
#327=DESCRIPTIVE_REPRESENTATION_ITEM('Generisch','Generisch');
#328=PROPERTY_DEFINITION('material property','material name',#620);
#329=PROPERTY_DEFINITION('material property','density of part',#620);
#330=DATE_TIME_ROLE('creation_date');
#331=APPLIED_DATE_AND_TIME_ASSIGNMENT(#332,#330,(#620));
#332=DATE_AND_TIME(#333,#334);
#333=CALENDAR_DATE(2024,29,5);
#334=LOCAL_TIME(0,0,0.,#335);
#335=COORDINATED_UNIVERSAL_TIME_OFFSET(0,0,.BEHIND.);
#336=AXIS2_PLACEMENT_3D('',#513,#392,#393);
#337=AXIS2_PLACEMENT_3D('',#514,#394,#395);
#338=AXIS2_PLACEMENT_3D('',#516,#396,#397);
#339=AXIS2_PLACEMENT_3D('',#518,#398,#399);
#340=AXIS2_PLACEMENT_3D('',#519,#400,#401);
#341=AXIS2_PLACEMENT_3D('',#521,#402,#403);
#342=AXIS2_PLACEMENT_3D('',#523,#404,#405);
#343=AXIS2_PLACEMENT_3D('',#524,#406,#407);
#344=AXIS2_PLACEMENT_3D('',#525,#408,#409);
#345=AXIS2_PLACEMENT_3D('',#528,#410,#411);
#346=AXIS2_PLACEMENT_3D('',#529,#412,#413);
#347=AXIS2_PLACEMENT_3D('',#531,#415,#416);
#348=AXIS2_PLACEMENT_3D('',#534,#417,#418);
#349=AXIS2_PLACEMENT_3D('',#535,#419,#420);
#350=AXIS2_PLACEMENT_3D('',#536,#421,#422);
#351=AXIS2_PLACEMENT_3D('',#537,#423,#424);
#352=AXIS2_PLACEMENT_3D('',#540,#425,#426);
#353=AXIS2_PLACEMENT_3D('',#541,#427,#428);
#354=AXIS2_PLACEMENT_3D('',#543,#430,#431);
#355=AXIS2_PLACEMENT_3D('',#546,#432,#433);
#356=AXIS2_PLACEMENT_3D('',#547,#434,#435);
#357=AXIS2_PLACEMENT_3D('',#548,#436,#437);
#358=AXIS2_PLACEMENT_3D('',#549,#438,#439);
#359=AXIS2_PLACEMENT_3D('',#553,#441,#442);
#360=AXIS2_PLACEMENT_3D('',#554,#443,#444);
#361=AXIS2_PLACEMENT_3D('',#555,#445,#446);
#362=AXIS2_PLACEMENT_3D('',#557,#447,#448);
#363=AXIS2_PLACEMENT_3D('',#559,#449,#450);
#364=AXIS2_PLACEMENT_3D('',#560,#451,#452);
#365=AXIS2_PLACEMENT_3D('',#561,#453,#454);
#366=AXIS2_PLACEMENT_3D('',#565,#456,#457);
#367=AXIS2_PLACEMENT_3D('',#566,#458,#459);
#368=AXIS2_PLACEMENT_3D('',#567,#460,#461);
#369=AXIS2_PLACEMENT_3D('',#569,#462,#463);
#370=AXIS2_PLACEMENT_3D('',#571,#464,#465);
#371=AXIS2_PLACEMENT_3D('',#572,#466,#467);
#372=AXIS2_PLACEMENT_3D('',#573,#468,#469);
#373=AXIS2_PLACEMENT_3D('',#575,#470,#471);
#374=AXIS2_PLACEMENT_3D('',#577,#473,#474);
#375=AXIS2_PLACEMENT_3D('',#580,#476,#477);
#376=AXIS2_PLACEMENT_3D('',#581,#478,#479);
#377=AXIS2_PLACEMENT_3D('',#585,#481,#482);
#378=AXIS2_PLACEMENT_3D('',#586,#483,#484);
#379=AXIS2_PLACEMENT_3D('',#587,#485,#486);
#380=AXIS2_PLACEMENT_3D('',#589,#487,#488);
#381=AXIS2_PLACEMENT_3D('',#591,#489,#490);
#382=AXIS2_PLACEMENT_3D('',#592,#491,#492);
#383=AXIS2_PLACEMENT_3D('',#593,#493,#494);
#384=AXIS2_PLACEMENT_3D('',#596,#496,#497);
#385=AXIS2_PLACEMENT_3D('',#597,#498,#499);
#386=AXIS2_PLACEMENT_3D('',#599,#500,#501);
#387=AXIS2_PLACEMENT_3D('',#600,#502,#503);
#388=AXIS2_PLACEMENT_3D('',#603,#504,#505);
#389=AXIS2_PLACEMENT_3D('',#604,#506,#507);
#390=AXIS2_PLACEMENT_3D('',#606,#509,#510);
#391=AXIS2_PLACEMENT_3D('',#607,#511,#512);
#392=DIRECTION('axis',(0.,0.,1.));
#393=DIRECTION('refdir',(1.,0.,0.));
#394=DIRECTION('center_axis',(0.,-1.,0.));
#395=DIRECTION('ref_axis',(0.,0.,-1.));
#396=DIRECTION('center_axis',(0.,-1.,0.));
#397=DIRECTION('ref_axis',(1.,0.,0.));
#398=DIRECTION('center_axis',(0.,-1.,0.));
#399=DIRECTION('ref_axis',(1.,0.,0.));
#400=DIRECTION('center_axis',(0.,-1.,0.));
#401=DIRECTION('ref_axis',(0.,0.,-1.));
#402=DIRECTION('center_axis',(-1.,0.,-1.22464679914735E-16));
#403=DIRECTION('ref_axis',(-1.22464679914735E-16,0.,1.));
#404=DIRECTION('center_axis',(0.,-1.,0.));
#405=DIRECTION('ref_axis',(1.,0.,0.));
#406=DIRECTION('center_axis',(0.,-1.,0.));
#407=DIRECTION('ref_axis',(1.,0.,0.));
#408=DIRECTION('center_axis',(0.,-1.,0.));
#409=DIRECTION('ref_axis',(-1.,0.,0.));
#410=DIRECTION('center_axis',(0.,-1.,0.));
#411=DIRECTION('ref_axis',(1.,0.,0.));
#412=DIRECTION('center_axis',(0.,-1.,0.));
#413=DIRECTION('ref_axis',(1.,0.,0.));
#414=DIRECTION('',(0.,1.,0.));
#415=DIRECTION('center_axis',(0.,-1.,0.));
#416=DIRECTION('ref_axis',(0.,0.,-1.));
#417=DIRECTION('center_axis',(0.,-1.,0.));
#418=DIRECTION('ref_axis',(1.,0.,0.));
#419=DIRECTION('center_axis',(-1.,0.,-1.22464679914735E-16));
#420=DIRECTION('ref_axis',(-1.22464679914735E-16,0.,1.));
#421=DIRECTION('center_axis',(0.,-1.,0.));
#422=DIRECTION('ref_axis',(1.,0.,0.));
#423=DIRECTION('center_axis',(0.,1.,0.));
#424=DIRECTION('ref_axis',(-1.,0.,0.));
#425=DIRECTION('center_axis',(0.,-1.,0.));
#426=DIRECTION('ref_axis',(1.,0.,0.));
#427=DIRECTION('center_axis',(0.,-1.,0.));
#428=DIRECTION('ref_axis',(1.,0.,0.));
#429=DIRECTION('',(0.996194698091746,0.0871557427476532,1.21998664834562E-16));
#430=DIRECTION('center_axis',(0.,-1.,0.));
#431=DIRECTION('ref_axis',(0.,0.,-1.));
#432=DIRECTION('center_axis',(0.,-1.,0.));
#433=DIRECTION('ref_axis',(1.,0.,0.));
#434=DIRECTION('center_axis',(-1.,0.,-1.22464679914735E-16));
#435=DIRECTION('ref_axis',(-1.22464679914735E-16,0.,1.));
#436=DIRECTION('center_axis',(0.,-1.,0.));
#437=DIRECTION('ref_axis',(1.,0.,0.));
#438=DIRECTION('center_axis',(0.,1.,0.));
#439=DIRECTION('ref_axis',(-1.,0.,0.));
#440=DIRECTION('',(0.74014040984173,0.672452357955057,9.06410583832285E-17));
#441=DIRECTION('center_axis',(0.,-1.,0.));
#442=DIRECTION('ref_axis',(1.,0.,0.));
#443=DIRECTION('center_axis',(0.,-1.,0.));
#444=DIRECTION('ref_axis',(1.,0.,0.));
#445=DIRECTION('center_axis',(0.,-1.,0.));
#446=DIRECTION('ref_axis',(0.,0.,-1.));
#447=DIRECTION('center_axis',(-1.,0.,-1.22464679914735E-16));
#448=DIRECTION('ref_axis',(-1.22464679914735E-16,0.,1.));
#449=DIRECTION('center_axis',(0.,-1.,0.));
#450=DIRECTION('ref_axis',(1.,0.,0.));
#451=DIRECTION('center_axis',(0.,-1.,0.));
#452=DIRECTION('ref_axis',(1.,0.,0.));
#453=DIRECTION('center_axis',(0.,-1.,0.));
#454=DIRECTION('ref_axis',(-1.,0.,0.));
#455=DIRECTION('',(0.,1.,0.));
#456=DIRECTION('center_axis',(0.,-1.,0.));
#457=DIRECTION('ref_axis',(1.,0.,0.));
#458=DIRECTION('center_axis',(0.,-1.,0.));
#459=DIRECTION('ref_axis',(1.,0.,0.));
#460=DIRECTION('center_axis',(0.,-1.,0.));
#461=DIRECTION('ref_axis',(0.,0.,-1.));
#462=DIRECTION('center_axis',(-1.,0.,-1.22464679914735E-16));
#463=DIRECTION('ref_axis',(-1.22464679914735E-16,0.,1.));
#464=DIRECTION('center_axis',(0.,-1.,0.));
#465=DIRECTION('ref_axis',(1.,0.,0.));
#466=DIRECTION('center_axis',(0.,-1.,0.));
#467=DIRECTION('ref_axis',(1.,0.,0.));
#468=DIRECTION('center_axis',(0.,1.,0.));
#469=DIRECTION('ref_axis',(-1.,0.,0.));
#470=DIRECTION('center_axis',(0.,-1.,0.));
#471=DIRECTION('ref_axis',(1.,0.,0.));
#472=DIRECTION('',(0.864921804512303,0.501906636815237,1.05922371940874E-16));
#473=DIRECTION('center_axis',(0.,-1.,0.));
#474=DIRECTION('ref_axis',(-1.,0.,0.));
#475=DIRECTION('',(0.,1.,0.));
#476=DIRECTION('center_axis',(0.,-1.,0.));
#477=DIRECTION('ref_axis',(1.,0.,0.));
#478=DIRECTION('center_axis',(0.,1.,0.));
#479=DIRECTION('ref_axis',(-1.,0.,0.));
#480=DIRECTION('',(0.675724628517339,0.737154140200748,8.27524003418794E-17));
#481=DIRECTION('center_axis',(0.,-1.,0.));
#482=DIRECTION('ref_axis',(1.,0.,0.));
#483=DIRECTION('center_axis',(0.,-1.,0.));
#484=DIRECTION('ref_axis',(1.,0.,0.));
#485=DIRECTION('center_axis',(0.,-1.,0.));
#486=DIRECTION('ref_axis',(0.,0.,-1.));
#487=DIRECTION('center_axis',(-1.,0.,-1.22464679914735E-16));
#488=DIRECTION('ref_axis',(-1.22464679914735E-16,0.,1.));
#489=DIRECTION('center_axis',(0.,-1.,0.));
#490=DIRECTION('ref_axis',(1.,0.,0.));
#491=DIRECTION('center_axis',(0.,-1.,0.));
#492=DIRECTION('ref_axis',(1.,0.,0.));
#493=DIRECTION('center_axis',(0.,1.,0.));
#494=DIRECTION('ref_axis',(-1.,0.,0.));
#495=DIRECTION('',(0.209529088730919,0.9778024140774,2.56599127842582E-17));
#496=DIRECTION('center_axis',(0.,-1.,0.));
#497=DIRECTION('ref_axis',(1.,0.,0.));
#498=DIRECTION('center_axis',(0.,1.,0.));
#499=DIRECTION('ref_axis',(0.,0.,1.));
#500=DIRECTION('center_axis',(0.,-1.,0.));
#501=DIRECTION('ref_axis',(1.,0.,0.));
#502=DIRECTION('center_axis',(0.,-1.,0.));
#503=DIRECTION('ref_axis',(-1.,0.,0.));
#504=DIRECTION('center_axis',(0.,-1.,0.));
#505=DIRECTION('ref_axis',(1.,0.,0.));
#506=DIRECTION('center_axis',(0.,-1.,0.));
#507=DIRECTION('ref_axis',(1.,0.,0.));
#508=DIRECTION('',(0.,1.,0.));
#509=DIRECTION('center_axis',(0.,-1.,0.));
#510=DIRECTION('ref_axis',(0.,0.,-1.));
#511=DIRECTION('center_axis',(-1.,0.,-1.22464679914735E-16));
#512=DIRECTION('ref_axis',(-1.22464679914735E-16,0.,1.));
#513=CARTESIAN_POINT('',(0.,0.,0.));
#514=CARTESIAN_POINT('Origin',(-30.1999999999999,18.,0.));
#515=CARTESIAN_POINT('',(-3.99234856522036E-15,17.9999999999999,32.5999999999999));
#516=CARTESIAN_POINT('Origin',(0.,17.9999999999999,0.));
#517=CARTESIAN_POINT('',(-3.698433333425E-15,18.,30.1999999999999));
#518=CARTESIAN_POINT('Origin',(0.,18.,0.));
#519=CARTESIAN_POINT('Origin',(0.,17.9,0.));
#520=CARTESIAN_POINT('',(-3.68618686543352E-15,17.9,30.0999999999999));
#521=CARTESIAN_POINT('Origin',(-3.698433333425E-15,17.9,30.1999999999999));
#522=CARTESIAN_POINT('',(30.0999999999999,17.9,3.68618686543352E-15));
#523=CARTESIAN_POINT('Origin',(0.,17.9,0.));
#524=CARTESIAN_POINT('Origin',(0.,17.9,0.));
#525=CARTESIAN_POINT('Origin',(0.,9.98970017797168,0.));
#526=CARTESIAN_POINT('',(-3.68618686543352E-15,2.07940035594339,30.0999999999999));
#527=CARTESIAN_POINT('',(30.0999999999999,2.07940035594339,3.68618686543352E-15));
#528=CARTESIAN_POINT('Origin',(0.,2.07940035594339,0.));
#529=CARTESIAN_POINT('Origin',(0.,2.07940035594339,0.));
#530=CARTESIAN_POINT('',(30.0999999999999,9.98970017797168,3.68618686543352E-15));
#531=CARTESIAN_POINT('Origin',(0.,2.07940035594339,0.));
#532=CARTESIAN_POINT('',(-3.64147039352296E-15,1.68092247670672,29.734862297099));
#533=CARTESIAN_POINT('',(29.734862297099,1.68092247670672,3.64147039352296E-15));
#534=CARTESIAN_POINT('Origin',(0.,1.68092247670672,0.));
#535=CARTESIAN_POINT('Origin',(-3.63720099346763E-15,2.07940035594339,29.6999999999999));
#536=CARTESIAN_POINT('Origin',(0.,1.68092247670672,0.));
#537=CARTESIAN_POINT('Origin',(0.,0.841110029135566,0.));
#538=CARTESIAN_POINT('',(-1.29036892653707E-15,0.00129758156441451,10.5366618966013));
#539=CARTESIAN_POINT('',(10.5366618966013,0.00129758156441465,1.29036892653707E-15));
#540=CARTESIAN_POINT('Origin',(0.,0.00129758156441451,0.));
#541=CARTESIAN_POINT('Origin',(0.,0.00129758156441451,0.));
#542=CARTESIAN_POINT('',(20.1357620968502,0.841110029135566,2.46591966003002E-15));
#543=CARTESIAN_POINT('Origin',(0.,0.499394930610291,0.));
#544=CARTESIAN_POINT('',(-1.24385634508047E-15,0.869465135531124,10.15685784625));
#545=CARTESIAN_POINT('',(10.15685784625,0.869465135531122,1.24385634508047E-15));
#546=CARTESIAN_POINT('Origin',(0.,0.869465135531124,0.));
#547=CARTESIAN_POINT('Origin',(-1.28503217646791E-15,0.499394930610291,
10.4930840252275));
#548=CARTESIAN_POINT('Origin',(0.,0.869465135531124,0.));
#549=CARTESIAN_POINT('Origin',(0.,4.28593635200238,0.));
#550=CARTESIAN_POINT('',(17.6775940782152,7.70240756847364,2.16488090045124E-15));
#551=CARTESIAN_POINT('',(13.9172259622326,4.28593635200238,1.70436862276586E-15));
#552=CARTESIAN_POINT('',(-2.16488090045124E-15,7.70240756847364,17.6775940782152));
#553=CARTESIAN_POINT('Origin',(0.,7.70240756847364,0.));
#554=CARTESIAN_POINT('Origin',(0.,7.70240756847364,0.));
#555=CARTESIAN_POINT('Origin',(0.,8.44254797831536,0.));
#556=CARTESIAN_POINT('',(-2.2049939175911E-15,8.44254797831536,18.0051417202601));
#557=CARTESIAN_POINT('Origin',(-2.08252923767636E-15,8.44254797831536,17.0051417202601));
#558=CARTESIAN_POINT('',(18.0051417202601,8.44254797831536,2.2049939175911E-15));
#559=CARTESIAN_POINT('Origin',(0.,8.44254797831536,0.));
#560=CARTESIAN_POINT('Origin',(0.,8.44254797831536,0.));
#561=CARTESIAN_POINT('Origin',(0.,11.2212739891577,0.));
#562=CARTESIAN_POINT('',(18.0051417202601,14.,2.2049939175911E-15));
#563=CARTESIAN_POINT('',(18.0051417202601,11.2212739891577,2.2049939175911E-15));
#564=CARTESIAN_POINT('',(-2.2049939175911E-15,14.,18.0051417202601));
#565=CARTESIAN_POINT('Origin',(0.,14.,0.));
#566=CARTESIAN_POINT('Origin',(0.,14.,0.));
#567=CARTESIAN_POINT('Origin',(0.,14.,0.));
#568=CARTESIAN_POINT('',(-2.13142171137533E-15,14.345968721805,17.4043790655339));
#569=CARTESIAN_POINT('Origin',(-2.15600804562519E-15,14.,17.60514172026));
#570=CARTESIAN_POINT('',(17.4043790655339,14.345968721805,2.13142171137533E-15));
#571=CARTESIAN_POINT('Origin',(0.,14.345968721805,0.));
#572=CARTESIAN_POINT('Origin',(0.,14.345968721805,0.));
#573=CARTESIAN_POINT('Origin',(0.,12.9229843609025,0.));
#574=CARTESIAN_POINT('',(12.5,11.5,1.53080849893419E-15));
#575=CARTESIAN_POINT('Origin',(0.,11.5,0.));
#576=CARTESIAN_POINT('',(14.9521895327669,12.9229843609025,1.83111510515476E-15));
#577=CARTESIAN_POINT('Origin',(0.,12.,0.));
#578=CARTESIAN_POINT('',(12.5,12.5,1.53080849893419E-15));
#579=CARTESIAN_POINT('',(12.5,12.,1.53080849893419E-15));
#580=CARTESIAN_POINT('Origin',(0.,12.5,0.));
#581=CARTESIAN_POINT('Origin',(0.,15.459922253256,0.));
#582=CARTESIAN_POINT('',(17.9265241309691,18.4198445065119,2.19536603968291E-15));
#583=CARTESIAN_POINT('',(15.2132620654846,15.459922253256,1.86308726930855E-15));
#584=CARTESIAN_POINT('',(-2.19536603968291E-15,18.4198445065119,17.9265241309691));
#585=CARTESIAN_POINT('Origin',(0.,18.4198445065119,0.));
#586=CARTESIAN_POINT('Origin',(0.,18.4198445065119,0.));
#587=CARTESIAN_POINT('Origin',(0.,18.6901343579189,0.));
#588=CARTESIAN_POINT('',(-2.20715440521585E-15,18.6063227224265,18.0227834405198));
#589=CARTESIAN_POINT('Origin',(-2.15925590135191E-15,18.6901343579189,17.6316624748888));
#590=CARTESIAN_POINT('',(18.0227834405198,18.6063227224265,2.20715440521585E-15));
#591=CARTESIAN_POINT('Origin',(0.,18.6063227224265,0.));
#592=CARTESIAN_POINT('Origin',(0.,18.6063227224265,0.));
#593=CARTESIAN_POINT('Origin',(0.,20.3031613612132,0.));
#594=CARTESIAN_POINT('',(18.75,22.,2.29621274840129E-15));
#595=CARTESIAN_POINT('',(18.3863917202599,20.3031613612132,2.25168357680857E-15));
#596=CARTESIAN_POINT('Origin',(0.,22.,0.));
#597=CARTESIAN_POINT('Origin',(-33.,22.,0.));
#598=CARTESIAN_POINT('',(33.,22.,4.04133443718627E-15));
#599=CARTESIAN_POINT('Origin',(0.,22.,0.));
#600=CARTESIAN_POINT('Origin',(0.,20.2,0.));
#601=CARTESIAN_POINT('',(-4.04133443718627E-15,18.4,33.));
#602=CARTESIAN_POINT('',(33.,18.4,4.04133443718627E-15));
#603=CARTESIAN_POINT('Origin',(0.,18.4,0.));
#604=CARTESIAN_POINT('Origin',(0.,18.4,0.));
#605=CARTESIAN_POINT('',(33.,20.2,4.04133443718627E-15));
#606=CARTESIAN_POINT('Origin',(0.,18.4,0.));
#607=CARTESIAN_POINT('Origin',(-3.99234856522036E-15,18.4,32.5999999999999));
#608=UNCERTAINTY_MEASURE_WITH_UNIT(LENGTH_MEASURE(0.01),#612,
'DISTANCE_ACCURACY_VALUE',
'Maximum model space distance between geometric entities at asserted c
onnectivities');
#609=UNCERTAINTY_MEASURE_WITH_UNIT(LENGTH_MEASURE(0.01),#612,
'DISTANCE_ACCURACY_VALUE',
'Maximum model space distance between geometric entities at asserted c
onnectivities');
#610=(
GEOMETRIC_REPRESENTATION_CONTEXT(3)
GLOBAL_UNCERTAINTY_ASSIGNED_CONTEXT((#608))
GLOBAL_UNIT_ASSIGNED_CONTEXT((#612,#614,#615))
REPRESENTATION_CONTEXT('','3D')
);
#611=(
GEOMETRIC_REPRESENTATION_CONTEXT(3)
GLOBAL_UNCERTAINTY_ASSIGNED_CONTEXT((#609))
GLOBAL_UNIT_ASSIGNED_CONTEXT((#612,#614,#615))
REPRESENTATION_CONTEXT('','3D')
);
#612=(
LENGTH_UNIT()
NAMED_UNIT(*)
SI_UNIT(.MILLI.,.METRE.)
);
#613=(
LENGTH_UNIT()
NAMED_UNIT(*)
SI_UNIT(.CENTI.,.METRE.)
);
#614=(
NAMED_UNIT(*)
PLANE_ANGLE_UNIT()
SI_UNIT($,.RADIAN.)
);
#615=(
NAMED_UNIT(*)
SI_UNIT($,.STERADIAN.)
SOLID_ANGLE_UNIT()
);
#616=SHAPE_DEFINITION_REPRESENTATION(#617,#618);
#617=PRODUCT_DEFINITION_SHAPE('',$,#620);
#618=SHAPE_REPRESENTATION('',(#336),#610);
#619=PRODUCT_DEFINITION_CONTEXT('part definition',#624,'design');
#620=PRODUCT_DEFINITION('881240z','881240z',#621,#619);
#621=PRODUCT_DEFINITION_FORMATION('',$,#626);
#622=PRODUCT_RELATED_PRODUCT_CATEGORY('881240z','881240z',(#626));
#623=APPLICATION_PROTOCOL_DEFINITION('international standard',
'automotive_design',2009,#624);
#624=APPLICATION_CONTEXT(
'Core Data for Automotive Mechanical Design Process');
#625=PRODUCT_CONTEXT('part definition',#624,'mechanical');
#626=PRODUCT('881240z','881240z',$,(#625));
#627=PRESENTATION_STYLE_ASSIGNMENT((#628));
#628=SURFACE_STYLE_USAGE(.BOTH.,#631);
#629=SURFACE_STYLE_RENDERING_WITH_PROPERTIES($,#635,(#630));
#630=SURFACE_STYLE_TRANSPARENT(0.);
#631=SURFACE_SIDE_STYLE('',(#632,#629));
#632=SURFACE_STYLE_FILL_AREA(#633);
#633=FILL_AREA_STYLE('',(#634));
#634=FILL_AREA_STYLE_COLOUR('',#635);
#635=COLOUR_RGB('',0.749019607843137,0.749019607843137,0.749019607843137);
ENDSEC;
END-ISO-10303-21;
