ISO-10303-21;
HEADER;
/* Generated by software containing ST-Developer
 * from STEP Tools, Inc. (www.steptools.com) 
 */

FILE_DESCRIPTION(
/* description */ (''),
/* implementation_level */ '2;1');

FILE_NAME(
/* name */ '881220z.stp',
/* time_stamp */ '2024-05-29T15:57:56+02:00',
/* author */ ('corinna'),
/* organization */ (''),
/* preprocessor_version */ 'ST-DEVELOPER v20',
/* originating_system */ 'Autodesk Inventor 2024',
/* authorisation */ '');

FILE_SCHEMA (('AUTOMOTIVE_DESIGN { 1 0 10303 214 3 1 1 }'));
ENDSEC;

DATA;
#10=MECHANICAL_DESIGN_GEOMETRIC_PRESENTATION_REPRESENTATION('',(#13),#611);
#11=SHAPE_REPRESENTATION_RELATIONSHIP('SRR','None',#618,#12);
#12=ADVANCED_BREP_SHAPE_REPRESENTATION('',(#14),#610);
#13=STYLED_ITEM('',(#627),#14);
#14=MANIFOLD_SOLID_BREP('Volumenk\X\F6rper1',#314);
#15=FACE_BOUND('',#58,.T.);
#16=FACE_BOUND('',#62,.T.);
#17=PLANE('',#366);
#18=PLANE('',#374);
#19=CYLINDRICAL_SURFACE('',#346,23.0000000000001);
#20=CYLINDRICAL_SURFACE('',#355,17.5);
#21=CYLINDRICAL_SURFACE('',#368,28.0000000000001);
#22=CYLINDRICAL_SURFACE('',#380,25.05);
#23=TOROIDAL_SURFACE('',#342,22.,1.);
#24=TOROIDAL_SURFACE('',#349,22.6000000000001,0.4);
#25=TOROIDAL_SURFACE('',#360,22.6296560028009,0.399999999999816);
#26=TOROIDAL_SURFACE('',#371,27.6000000000001,0.4);
#27=TOROIDAL_SURFACE('',#376,25.15,0.1);
#28=TOROIDAL_SURFACE('',#383,24.6500000000003,0.399999999999636);
#29=TOROIDAL_SURFACE('',#390,15.5000000000001,0.5);
#30=FACE_OUTER_BOUND('',#48,.T.);
#31=FACE_OUTER_BOUND('',#49,.T.);
#32=FACE_OUTER_BOUND('',#50,.T.);
#33=FACE_OUTER_BOUND('',#51,.T.);
#34=FACE_OUTER_BOUND('',#52,.T.);
#35=FACE_OUTER_BOUND('',#53,.T.);
#36=FACE_OUTER_BOUND('',#54,.T.);
#37=FACE_OUTER_BOUND('',#55,.T.);
#38=FACE_OUTER_BOUND('',#56,.T.);
#39=FACE_OUTER_BOUND('',#57,.T.);
#40=FACE_OUTER_BOUND('',#59,.T.);
#41=FACE_OUTER_BOUND('',#60,.T.);
#42=FACE_OUTER_BOUND('',#61,.T.);
#43=FACE_OUTER_BOUND('',#63,.T.);
#44=FACE_OUTER_BOUND('',#64,.T.);
#45=FACE_OUTER_BOUND('',#65,.T.);
#46=FACE_OUTER_BOUND('',#66,.T.);
#47=FACE_OUTER_BOUND('',#67,.T.);
#48=EDGE_LOOP('',(#199,#200,#201,#202,#203,#204));
#49=EDGE_LOOP('',(#205,#206,#207,#208,#209,#210));
#50=EDGE_LOOP('',(#211,#212,#213,#214,#215,#216));
#51=EDGE_LOOP('',(#217,#218,#219,#220,#221,#222));
#52=EDGE_LOOP('',(#223,#224,#225,#226,#227));
#53=EDGE_LOOP('',(#228,#229,#230,#231));
#54=EDGE_LOOP('',(#232,#233,#234,#235,#236));
#55=EDGE_LOOP('',(#237,#238,#239,#240,#241,#242));
#56=EDGE_LOOP('',(#243,#244,#245,#246,#247));
#57=EDGE_LOOP('',(#248));
#58=EDGE_LOOP('',(#249));
#59=EDGE_LOOP('',(#250,#251,#252,#253,#254));
#60=EDGE_LOOP('',(#255,#256,#257,#258,#259));
#61=EDGE_LOOP('',(#260));
#62=EDGE_LOOP('',(#261));
#63=EDGE_LOOP('',(#262,#263,#264,#265,#266));
#64=EDGE_LOOP('',(#267,#268,#269,#270,#271,#272));
#65=EDGE_LOOP('',(#273,#274,#275,#276,#277,#278));
#66=EDGE_LOOP('',(#279,#280,#281,#282,#283,#284));
#67=EDGE_LOOP('',(#285,#286,#287,#288,#289,#290));
#68=LINE('',#519,#77);
#69=LINE('',#532,#78);
#70=LINE('',#545,#79);
#71=LINE('',#548,#80);
#72=LINE('',#552,#81);
#73=LINE('',#564,#82);
#74=LINE('',#574,#83);
#75=LINE('',#593,#84);
#76=LINE('',#605,#85);
#77=VECTOR('',#398,18.9182468341697);
#78=VECTOR('',#415,23.0000000000001);
#79=VECTOR('',#432,19.9500000000002);
#80=VECTOR('',#435,17.5);
#81=VECTOR('',#440,20.2062493576376);
#82=VECTOR('',#455,23.3864024387872);
#83=VECTOR('',#468,28.0000000000001);
#84=VECTOR('',#493,25.05);
#85=VECTOR('',#508,20.1677240825744);
#86=CIRCLE('',#338,15.1635063316596);
#87=CIRCLE('',#339,22.6729873366799);
#88=CIRCLE('',#340,22.6729873366799);
#89=CIRCLE('',#341,15.1635063316596);
#90=CIRCLE('',#343,1.);
#91=CIRCLE('',#344,23.);
#92=CIRCLE('',#345,23.);
#93=CIRCLE('',#347,23.0000000000001);
#94=CIRCLE('',#348,23.0000000000001);
#95=CIRCLE('',#350,0.4);
#96=CIRCLE('',#351,22.4000000000003);
#97=CIRCLE('',#352,22.4000000000003);
#98=CIRCLE('',#354,17.5);
#99=CIRCLE('',#356,17.5);
#100=CIRCLE('',#358,22.9124987152752);
#101=CIRCLE('',#359,22.9124987152752);
#102=CIRCLE('',#361,0.399999999999816);
#103=CIRCLE('',#362,23.0228048775744);
#104=CIRCLE('',#363,23.0228048775744);
#105=CIRCLE('',#365,23.75);
#106=CIRCLE('',#367,28.);
#107=CIRCLE('',#369,28.0000000000001);
#108=CIRCLE('',#370,28.0000000000001);
#109=CIRCLE('',#372,27.6000000000001);
#110=CIRCLE('',#373,0.4);
#111=CIRCLE('',#375,25.1500000000003);
#112=CIRCLE('',#377,0.1);
#113=CIRCLE('',#378,25.05);
#114=CIRCLE('',#379,25.05);
#115=CIRCLE('',#381,25.05);
#116=CIRCLE('',#382,25.05);
#117=CIRCLE('',#384,24.7324214067332);
#118=CIRCLE('',#385,0.399999999999636);
#119=CIRCLE('',#386,24.7324214067332);
#120=CIRCLE('',#388,15.6030267584156);
#121=CIRCLE('',#389,15.6030267584156);
#122=CIRCLE('',#391,0.5);
#123=VERTEX_POINT('',#515);
#124=VERTEX_POINT('',#516);
#125=VERTEX_POINT('',#518);
#126=VERTEX_POINT('',#520);
#127=VERTEX_POINT('',#525);
#128=VERTEX_POINT('',#527);
#129=VERTEX_POINT('',#531);
#130=VERTEX_POINT('',#533);
#131=VERTEX_POINT('',#537);
#132=VERTEX_POINT('',#539);
#133=VERTEX_POINT('',#543);
#134=VERTEX_POINT('',#547);
#135=VERTEX_POINT('',#551);
#136=VERTEX_POINT('',#553);
#137=VERTEX_POINT('',#557);
#138=VERTEX_POINT('',#559);
#139=VERTEX_POINT('',#563);
#140=VERTEX_POINT('',#567);
#141=VERTEX_POINT('',#570);
#142=VERTEX_POINT('',#571);
#143=VERTEX_POINT('',#576);
#144=VERTEX_POINT('',#580);
#145=VERTEX_POINT('',#583);
#146=VERTEX_POINT('',#585);
#147=VERTEX_POINT('',#589);
#148=VERTEX_POINT('',#590);
#149=VERTEX_POINT('',#595);
#150=VERTEX_POINT('',#596);
#151=VERTEX_POINT('',#601);
#152=VERTEX_POINT('',#602);
#153=EDGE_CURVE('',#123,#124,#86,.T.);
#154=EDGE_CURVE('',#124,#125,#68,.T.);
#155=EDGE_CURVE('',#126,#125,#87,.T.);
#156=EDGE_CURVE('',#125,#126,#88,.T.);
#157=EDGE_CURVE('',#124,#123,#89,.T.);
#158=EDGE_CURVE('',#126,#127,#90,.T.);
#159=EDGE_CURVE('',#128,#127,#91,.T.);
#160=EDGE_CURVE('',#127,#128,#92,.T.);
#161=EDGE_CURVE('',#128,#129,#69,.T.);
#162=EDGE_CURVE('',#130,#129,#93,.T.);
#163=EDGE_CURVE('',#129,#130,#94,.T.);
#164=EDGE_CURVE('',#130,#131,#95,.T.);
#165=EDGE_CURVE('',#132,#131,#96,.T.);
#166=EDGE_CURVE('',#131,#132,#97,.T.);
#167=EDGE_CURVE('',#133,#133,#98,.T.);
#168=EDGE_CURVE('',#133,#132,#70,.T.);
#169=EDGE_CURVE('',#133,#134,#71,.T.);
#170=EDGE_CURVE('',#134,#134,#99,.T.);
#171=EDGE_CURVE('',#134,#135,#72,.T.);
#172=EDGE_CURVE('',#136,#135,#100,.T.);
#173=EDGE_CURVE('',#135,#136,#101,.T.);
#174=EDGE_CURVE('',#136,#137,#102,.T.);
#175=EDGE_CURVE('',#138,#137,#103,.T.);
#176=EDGE_CURVE('',#137,#138,#104,.T.);
#177=EDGE_CURVE('',#138,#139,#73,.T.);
#178=EDGE_CURVE('',#139,#139,#105,.T.);
#179=EDGE_CURVE('',#140,#140,#106,.T.);
#180=EDGE_CURVE('',#141,#142,#107,.T.);
#181=EDGE_CURVE('',#142,#141,#108,.T.);
#182=EDGE_CURVE('',#142,#140,#74,.T.);
#183=EDGE_CURVE('',#143,#143,#109,.T.);
#184=EDGE_CURVE('',#143,#141,#110,.T.);
#185=EDGE_CURVE('',#144,#144,#111,.T.);
#186=EDGE_CURVE('',#144,#145,#112,.T.);
#187=EDGE_CURVE('',#146,#145,#113,.T.);
#188=EDGE_CURVE('',#145,#146,#114,.T.);
#189=EDGE_CURVE('',#147,#148,#115,.T.);
#190=EDGE_CURVE('',#148,#147,#116,.T.);
#191=EDGE_CURVE('',#148,#146,#75,.T.);
#192=EDGE_CURVE('',#149,#150,#117,.T.);
#193=EDGE_CURVE('',#149,#147,#118,.T.);
#194=EDGE_CURVE('',#150,#149,#119,.T.);
#195=EDGE_CURVE('',#151,#152,#120,.T.);
#196=EDGE_CURVE('',#152,#151,#121,.T.);
#197=EDGE_CURVE('',#152,#150,#76,.T.);
#198=EDGE_CURVE('',#123,#151,#122,.T.);
#199=ORIENTED_EDGE('',*,*,#153,.T.);
#200=ORIENTED_EDGE('',*,*,#154,.T.);
#201=ORIENTED_EDGE('',*,*,#155,.F.);
#202=ORIENTED_EDGE('',*,*,#156,.F.);
#203=ORIENTED_EDGE('',*,*,#154,.F.);
#204=ORIENTED_EDGE('',*,*,#157,.T.);
#205=ORIENTED_EDGE('',*,*,#155,.T.);
#206=ORIENTED_EDGE('',*,*,#156,.T.);
#207=ORIENTED_EDGE('',*,*,#158,.T.);
#208=ORIENTED_EDGE('',*,*,#159,.F.);
#209=ORIENTED_EDGE('',*,*,#160,.F.);
#210=ORIENTED_EDGE('',*,*,#158,.F.);
#211=ORIENTED_EDGE('',*,*,#160,.T.);
#212=ORIENTED_EDGE('',*,*,#161,.T.);
#213=ORIENTED_EDGE('',*,*,#162,.F.);
#214=ORIENTED_EDGE('',*,*,#163,.F.);
#215=ORIENTED_EDGE('',*,*,#161,.F.);
#216=ORIENTED_EDGE('',*,*,#159,.T.);
#217=ORIENTED_EDGE('',*,*,#162,.T.);
#218=ORIENTED_EDGE('',*,*,#163,.T.);
#219=ORIENTED_EDGE('',*,*,#164,.T.);
#220=ORIENTED_EDGE('',*,*,#165,.F.);
#221=ORIENTED_EDGE('',*,*,#166,.F.);
#222=ORIENTED_EDGE('',*,*,#164,.F.);
#223=ORIENTED_EDGE('',*,*,#167,.F.);
#224=ORIENTED_EDGE('',*,*,#168,.T.);
#225=ORIENTED_EDGE('',*,*,#165,.T.);
#226=ORIENTED_EDGE('',*,*,#166,.T.);
#227=ORIENTED_EDGE('',*,*,#168,.F.);
#228=ORIENTED_EDGE('',*,*,#167,.T.);
#229=ORIENTED_EDGE('',*,*,#169,.T.);
#230=ORIENTED_EDGE('',*,*,#170,.F.);
#231=ORIENTED_EDGE('',*,*,#169,.F.);
#232=ORIENTED_EDGE('',*,*,#170,.T.);
#233=ORIENTED_EDGE('',*,*,#171,.T.);
#234=ORIENTED_EDGE('',*,*,#172,.F.);
#235=ORIENTED_EDGE('',*,*,#173,.F.);
#236=ORIENTED_EDGE('',*,*,#171,.F.);
#237=ORIENTED_EDGE('',*,*,#172,.T.);
#238=ORIENTED_EDGE('',*,*,#173,.T.);
#239=ORIENTED_EDGE('',*,*,#174,.T.);
#240=ORIENTED_EDGE('',*,*,#175,.F.);
#241=ORIENTED_EDGE('',*,*,#176,.F.);
#242=ORIENTED_EDGE('',*,*,#174,.F.);
#243=ORIENTED_EDGE('',*,*,#176,.T.);
#244=ORIENTED_EDGE('',*,*,#177,.T.);
#245=ORIENTED_EDGE('',*,*,#178,.F.);
#246=ORIENTED_EDGE('',*,*,#177,.F.);
#247=ORIENTED_EDGE('',*,*,#175,.T.);
#248=ORIENTED_EDGE('',*,*,#179,.F.);
#249=ORIENTED_EDGE('',*,*,#178,.T.);
#250=ORIENTED_EDGE('',*,*,#180,.F.);
#251=ORIENTED_EDGE('',*,*,#181,.F.);
#252=ORIENTED_EDGE('',*,*,#182,.T.);
#253=ORIENTED_EDGE('',*,*,#179,.T.);
#254=ORIENTED_EDGE('',*,*,#182,.F.);
#255=ORIENTED_EDGE('',*,*,#183,.F.);
#256=ORIENTED_EDGE('',*,*,#184,.T.);
#257=ORIENTED_EDGE('',*,*,#180,.T.);
#258=ORIENTED_EDGE('',*,*,#181,.T.);
#259=ORIENTED_EDGE('',*,*,#184,.F.);
#260=ORIENTED_EDGE('',*,*,#183,.T.);
#261=ORIENTED_EDGE('',*,*,#185,.F.);
#262=ORIENTED_EDGE('',*,*,#185,.T.);
#263=ORIENTED_EDGE('',*,*,#186,.T.);
#264=ORIENTED_EDGE('',*,*,#187,.F.);
#265=ORIENTED_EDGE('',*,*,#188,.F.);
#266=ORIENTED_EDGE('',*,*,#186,.F.);
#267=ORIENTED_EDGE('',*,*,#189,.F.);
#268=ORIENTED_EDGE('',*,*,#190,.F.);
#269=ORIENTED_EDGE('',*,*,#191,.T.);
#270=ORIENTED_EDGE('',*,*,#187,.T.);
#271=ORIENTED_EDGE('',*,*,#188,.T.);
#272=ORIENTED_EDGE('',*,*,#191,.F.);
#273=ORIENTED_EDGE('',*,*,#192,.F.);
#274=ORIENTED_EDGE('',*,*,#193,.T.);
#275=ORIENTED_EDGE('',*,*,#189,.T.);
#276=ORIENTED_EDGE('',*,*,#190,.T.);
#277=ORIENTED_EDGE('',*,*,#193,.F.);
#278=ORIENTED_EDGE('',*,*,#194,.F.);
#279=ORIENTED_EDGE('',*,*,#195,.F.);
#280=ORIENTED_EDGE('',*,*,#196,.F.);
#281=ORIENTED_EDGE('',*,*,#197,.T.);
#282=ORIENTED_EDGE('',*,*,#194,.T.);
#283=ORIENTED_EDGE('',*,*,#192,.T.);
#284=ORIENTED_EDGE('',*,*,#197,.F.);
#285=ORIENTED_EDGE('',*,*,#153,.F.);
#286=ORIENTED_EDGE('',*,*,#198,.T.);
#287=ORIENTED_EDGE('',*,*,#195,.T.);
#288=ORIENTED_EDGE('',*,*,#196,.T.);
#289=ORIENTED_EDGE('',*,*,#198,.F.);
#290=ORIENTED_EDGE('',*,*,#157,.F.);
#291=CONICAL_SURFACE('',#337,18.9182468341697,0.832556092385808);
#292=CONICAL_SURFACE('',#353,19.9500000000002,1.04719755119661);
#293=CONICAL_SURFACE('',#357,20.2062493576376,0.785398163397443);
#294=CONICAL_SURFACE('',#364,23.3864024387872,0.185347949995681);
#295=CONICAL_SURFACE('',#387,20.1677240825744,1.36325612101126);
#296=ADVANCED_FACE('',(#30),#291,.F.);
#297=ADVANCED_FACE('',(#31),#23,.F.);
#298=ADVANCED_FACE('',(#32),#19,.F.);
#299=ADVANCED_FACE('',(#33),#24,.F.);
#300=ADVANCED_FACE('',(#34),#292,.T.);
#301=ADVANCED_FACE('',(#35),#20,.F.);
#302=ADVANCED_FACE('',(#36),#293,.F.);
#303=ADVANCED_FACE('',(#37),#25,.F.);
#304=ADVANCED_FACE('',(#38),#294,.F.);
#305=ADVANCED_FACE('',(#39,#15),#17,.T.);
#306=ADVANCED_FACE('',(#40),#21,.T.);
#307=ADVANCED_FACE('',(#41),#26,.T.);
#308=ADVANCED_FACE('',(#42,#16),#18,.T.);
#309=ADVANCED_FACE('',(#43),#27,.F.);
#310=ADVANCED_FACE('',(#44),#22,.T.);
#311=ADVANCED_FACE('',(#45),#28,.T.);
#312=ADVANCED_FACE('',(#46),#295,.T.);
#313=ADVANCED_FACE('',(#47),#29,.T.);
#314=CLOSED_SHELL('',(#296,#297,#298,#299,#300,#301,#302,#303,#304,#305,
#306,#307,#308,#309,#310,#311,#312,#313));
#315=DERIVED_UNIT_ELEMENT(#318,1.);
#316=DERIVED_UNIT_ELEMENT(#613,-3.);
#317=DIMENSIONAL_EXPONENTS(0.,1.,0.,0.,0.,0.,0.);
#318=(
CONVERSION_BASED_UNIT('gram',#320)
MASS_UNIT()
NAMED_UNIT(#317)
);
#319=(
MASS_UNIT()
NAMED_UNIT(*)
SI_UNIT(.KILO.,.GRAM.)
);
#320=MASS_MEASURE_WITH_UNIT(MASS_MEASURE(0.001),#319);
#321=DERIVED_UNIT((#315,#316));
#322=MEASURE_REPRESENTATION_ITEM('density measure',
POSITIVE_RATIO_MEASURE(1.),#321);
#323=PROPERTY_DEFINITION_REPRESENTATION(#328,#325);
#324=PROPERTY_DEFINITION_REPRESENTATION(#329,#326);
#325=REPRESENTATION('material name',(#327),#610);
#326=REPRESENTATION('density',(#322),#610);
#327=DESCRIPTIVE_REPRESENTATION_ITEM('Generisch','Generisch');
#328=PROPERTY_DEFINITION('material property','material name',#620);
#329=PROPERTY_DEFINITION('material property','density of part',#620);
#330=DATE_TIME_ROLE('creation_date');
#331=APPLIED_DATE_AND_TIME_ASSIGNMENT(#332,#330,(#620));
#332=DATE_AND_TIME(#333,#334);
#333=CALENDAR_DATE(2024,29,5);
#334=LOCAL_TIME(0,0,0.,#335);
#335=COORDINATED_UNIVERSAL_TIME_OFFSET(0,0,.BEHIND.);
#336=AXIS2_PLACEMENT_3D('',#513,#392,#393);
#337=AXIS2_PLACEMENT_3D('',#514,#394,#395);
#338=AXIS2_PLACEMENT_3D('',#517,#396,#397);
#339=AXIS2_PLACEMENT_3D('',#521,#399,#400);
#340=AXIS2_PLACEMENT_3D('',#522,#401,#402);
#341=AXIS2_PLACEMENT_3D('',#523,#403,#404);
#342=AXIS2_PLACEMENT_3D('',#524,#405,#406);
#343=AXIS2_PLACEMENT_3D('',#526,#407,#408);
#344=AXIS2_PLACEMENT_3D('',#528,#409,#410);
#345=AXIS2_PLACEMENT_3D('',#529,#411,#412);
#346=AXIS2_PLACEMENT_3D('',#530,#413,#414);
#347=AXIS2_PLACEMENT_3D('',#534,#416,#417);
#348=AXIS2_PLACEMENT_3D('',#535,#418,#419);
#349=AXIS2_PLACEMENT_3D('',#536,#420,#421);
#350=AXIS2_PLACEMENT_3D('',#538,#422,#423);
#351=AXIS2_PLACEMENT_3D('',#540,#424,#425);
#352=AXIS2_PLACEMENT_3D('',#541,#426,#427);
#353=AXIS2_PLACEMENT_3D('',#542,#428,#429);
#354=AXIS2_PLACEMENT_3D('',#544,#430,#431);
#355=AXIS2_PLACEMENT_3D('',#546,#433,#434);
#356=AXIS2_PLACEMENT_3D('',#549,#436,#437);
#357=AXIS2_PLACEMENT_3D('',#550,#438,#439);
#358=AXIS2_PLACEMENT_3D('',#554,#441,#442);
#359=AXIS2_PLACEMENT_3D('',#555,#443,#444);
#360=AXIS2_PLACEMENT_3D('',#556,#445,#446);
#361=AXIS2_PLACEMENT_3D('',#558,#447,#448);
#362=AXIS2_PLACEMENT_3D('',#560,#449,#450);
#363=AXIS2_PLACEMENT_3D('',#561,#451,#452);
#364=AXIS2_PLACEMENT_3D('',#562,#453,#454);
#365=AXIS2_PLACEMENT_3D('',#565,#456,#457);
#366=AXIS2_PLACEMENT_3D('',#566,#458,#459);
#367=AXIS2_PLACEMENT_3D('',#568,#460,#461);
#368=AXIS2_PLACEMENT_3D('',#569,#462,#463);
#369=AXIS2_PLACEMENT_3D('',#572,#464,#465);
#370=AXIS2_PLACEMENT_3D('',#573,#466,#467);
#371=AXIS2_PLACEMENT_3D('',#575,#469,#470);
#372=AXIS2_PLACEMENT_3D('',#577,#471,#472);
#373=AXIS2_PLACEMENT_3D('',#578,#473,#474);
#374=AXIS2_PLACEMENT_3D('',#579,#475,#476);
#375=AXIS2_PLACEMENT_3D('',#581,#477,#478);
#376=AXIS2_PLACEMENT_3D('',#582,#479,#480);
#377=AXIS2_PLACEMENT_3D('',#584,#481,#482);
#378=AXIS2_PLACEMENT_3D('',#586,#483,#484);
#379=AXIS2_PLACEMENT_3D('',#587,#485,#486);
#380=AXIS2_PLACEMENT_3D('',#588,#487,#488);
#381=AXIS2_PLACEMENT_3D('',#591,#489,#490);
#382=AXIS2_PLACEMENT_3D('',#592,#491,#492);
#383=AXIS2_PLACEMENT_3D('',#594,#494,#495);
#384=AXIS2_PLACEMENT_3D('',#597,#496,#497);
#385=AXIS2_PLACEMENT_3D('',#598,#498,#499);
#386=AXIS2_PLACEMENT_3D('',#599,#500,#501);
#387=AXIS2_PLACEMENT_3D('',#600,#502,#503);
#388=AXIS2_PLACEMENT_3D('',#603,#504,#505);
#389=AXIS2_PLACEMENT_3D('',#604,#506,#507);
#390=AXIS2_PLACEMENT_3D('',#606,#509,#510);
#391=AXIS2_PLACEMENT_3D('',#607,#511,#512);
#392=DIRECTION('axis',(0.,0.,1.));
#393=DIRECTION('refdir',(1.,0.,0.));
#394=DIRECTION('center_axis',(0.,1.,0.));
#395=DIRECTION('ref_axis',(-1.,0.,0.));
#396=DIRECTION('center_axis',(0.,-1.,0.));
#397=DIRECTION('ref_axis',(1.,0.,0.));
#398=DIRECTION('',(0.739654003347239,0.672987336680567,9.05814907675722E-17));
#399=DIRECTION('center_axis',(0.,-1.,0.));
#400=DIRECTION('ref_axis',(1.,0.,0.));
#401=DIRECTION('center_axis',(0.,-1.,0.));
#402=DIRECTION('ref_axis',(1.,0.,0.));
#403=DIRECTION('center_axis',(0.,-1.,0.));
#404=DIRECTION('ref_axis',(1.,0.,0.));
#405=DIRECTION('center_axis',(0.,-1.,0.));
#406=DIRECTION('ref_axis',(0.,0.,-1.));
#407=DIRECTION('center_axis',(-1.,0.,-1.22464679914735E-16));
#408=DIRECTION('ref_axis',(-1.22464679914735E-16,0.,1.));
#409=DIRECTION('center_axis',(0.,-1.,0.));
#410=DIRECTION('ref_axis',(1.,0.,0.));
#411=DIRECTION('center_axis',(0.,-1.,0.));
#412=DIRECTION('ref_axis',(1.,0.,0.));
#413=DIRECTION('center_axis',(0.,-1.,0.));
#414=DIRECTION('ref_axis',(-1.,0.,0.));
#415=DIRECTION('',(0.,1.,0.));
#416=DIRECTION('center_axis',(0.,-1.,0.));
#417=DIRECTION('ref_axis',(1.,0.,0.));
#418=DIRECTION('center_axis',(0.,-1.,0.));
#419=DIRECTION('ref_axis',(1.,0.,0.));
#420=DIRECTION('center_axis',(0.,-1.,0.));
#421=DIRECTION('ref_axis',(0.,0.,-1.));
#422=DIRECTION('center_axis',(-1.,0.,-1.22464679914735E-16));
#423=DIRECTION('ref_axis',(-1.22464679914735E-16,0.,1.));
#424=DIRECTION('center_axis',(0.,-1.,0.));
#425=DIRECTION('ref_axis',(1.,0.,0.));
#426=DIRECTION('center_axis',(0.,-1.,0.));
#427=DIRECTION('ref_axis',(1.,0.,0.));
#428=DIRECTION('center_axis',(0.,1.,0.));
#429=DIRECTION('ref_axis',(-1.,0.,0.));
#430=DIRECTION('center_axis',(0.,-1.,0.));
#431=DIRECTION('ref_axis',(1.,0.,0.));
#432=DIRECTION('',(0.866025403784442,0.499999999999993,1.06057523872491E-16));
#433=DIRECTION('center_axis',(0.,-1.,0.));
#434=DIRECTION('ref_axis',(-1.,0.,0.));
#435=DIRECTION('',(0.,1.,0.));
#436=DIRECTION('center_axis',(0.,-1.,0.));
#437=DIRECTION('ref_axis',(1.,0.,0.));
#438=DIRECTION('center_axis',(0.,1.,0.));
#439=DIRECTION('ref_axis',(-1.,0.,0.));
#440=DIRECTION('',(0.707106781186544,0.707106781186551,8.65956056235489E-17));
#441=DIRECTION('center_axis',(0.,-1.,0.));
#442=DIRECTION('ref_axis',(1.,0.,0.));
#443=DIRECTION('center_axis',(0.,-1.,0.));
#444=DIRECTION('ref_axis',(1.,0.,0.));
#445=DIRECTION('center_axis',(0.,-1.,0.));
#446=DIRECTION('ref_axis',(0.,0.,-1.));
#447=DIRECTION('center_axis',(-1.,0.,-1.22464679914735E-16));
#448=DIRECTION('ref_axis',(-1.22464679914735E-16,0.,1.));
#449=DIRECTION('center_axis',(0.,-1.,0.));
#450=DIRECTION('ref_axis',(1.,0.,0.));
#451=DIRECTION('center_axis',(0.,-1.,0.));
#452=DIRECTION('ref_axis',(1.,0.,0.));
#453=DIRECTION('center_axis',(0.,1.,0.));
#454=DIRECTION('ref_axis',(-1.,0.,0.));
#455=DIRECTION('',(0.184288535050172,0.982872186934325,2.25688364568748E-17));
#456=DIRECTION('center_axis',(0.,-1.,0.));
#457=DIRECTION('ref_axis',(1.,0.,0.));
#458=DIRECTION('center_axis',(0.,1.,0.));
#459=DIRECTION('ref_axis',(0.,0.,1.));
#460=DIRECTION('center_axis',(0.,-1.,0.));
#461=DIRECTION('ref_axis',(1.,0.,0.));
#462=DIRECTION('center_axis',(0.,-1.,0.));
#463=DIRECTION('ref_axis',(-1.,0.,0.));
#464=DIRECTION('center_axis',(0.,-1.,0.));
#465=DIRECTION('ref_axis',(1.,0.,0.));
#466=DIRECTION('center_axis',(0.,-1.,0.));
#467=DIRECTION('ref_axis',(1.,0.,0.));
#468=DIRECTION('',(0.,1.,0.));
#469=DIRECTION('center_axis',(0.,-1.,0.));
#470=DIRECTION('ref_axis',(0.,0.,-1.));
#471=DIRECTION('center_axis',(0.,-1.,0.));
#472=DIRECTION('ref_axis',(1.,0.,0.));
#473=DIRECTION('center_axis',(-1.,0.,-1.22464679914735E-16));
#474=DIRECTION('ref_axis',(-1.22464679914735E-16,0.,1.));
#475=DIRECTION('center_axis',(0.,-1.,0.));
#476=DIRECTION('ref_axis',(0.,0.,-1.));
#477=DIRECTION('center_axis',(0.,-1.,0.));
#478=DIRECTION('ref_axis',(1.,0.,0.));
#479=DIRECTION('center_axis',(0.,-1.,0.));
#480=DIRECTION('ref_axis',(0.,0.,-1.));
#481=DIRECTION('center_axis',(-1.,0.,-1.22464679914735E-16));
#482=DIRECTION('ref_axis',(-1.22464679914735E-16,0.,1.));
#483=DIRECTION('center_axis',(0.,-1.,0.));
#484=DIRECTION('ref_axis',(1.,0.,0.));
#485=DIRECTION('center_axis',(0.,-1.,0.));
#486=DIRECTION('ref_axis',(1.,0.,0.));
#487=DIRECTION('center_axis',(0.,-1.,0.));
#488=DIRECTION('ref_axis',(-1.,0.,0.));
#489=DIRECTION('center_axis',(0.,-1.,0.));
#490=DIRECTION('ref_axis',(1.,0.,0.));
#491=DIRECTION('center_axis',(0.,-1.,0.));
#492=DIRECTION('ref_axis',(1.,0.,0.));
#493=DIRECTION('',(0.,1.,0.));
#494=DIRECTION('center_axis',(0.,-1.,0.));
#495=DIRECTION('ref_axis',(0.,0.,-1.));
#496=DIRECTION('center_axis',(0.,-1.,0.));
#497=DIRECTION('ref_axis',(1.,0.,0.));
#498=DIRECTION('center_axis',(-1.,0.,-1.22464679914735E-16));
#499=DIRECTION('ref_axis',(-1.22464679914735E-16,0.,1.));
#500=DIRECTION('center_axis',(0.,-1.,0.));
#501=DIRECTION('ref_axis',(1.,0.,0.));
#502=DIRECTION('center_axis',(0.,1.,0.));
#503=DIRECTION('ref_axis',(-1.,0.,0.));
#504=DIRECTION('center_axis',(0.,-1.,0.));
#505=DIRECTION('ref_axis',(1.,0.,0.));
#506=DIRECTION('center_axis',(0.,-1.,0.));
#507=DIRECTION('ref_axis',(1.,0.,0.));
#508=DIRECTION('',(0.978540723833679,0.206053516832547,1.19836676527825E-16));
#509=DIRECTION('center_axis',(0.,-1.,0.));
#510=DIRECTION('ref_axis',(0.,0.,-1.));
#511=DIRECTION('center_axis',(-1.,0.,-1.22464679914735E-16));
#512=DIRECTION('ref_axis',(-1.22464679914735E-16,0.,1.));
#513=CARTESIAN_POINT('',(0.,0.,0.));
#514=CARTESIAN_POINT('Origin',(0.,4.28614435989205,0.));
#515=CARTESIAN_POINT('',(-1.85699394929176E-15,0.869827001673599,15.1635063316596));
#516=CARTESIAN_POINT('',(15.1635063316596,0.869827001673598,1.85699394929176E-15));
#517=CARTESIAN_POINT('Origin',(0.,0.869827001673599,0.));
#518=CARTESIAN_POINT('',(22.6729873366799,7.70246171811049,2.77664013689735E-15));
#519=CARTESIAN_POINT('',(18.9182468341697,4.28614435989205,2.31681704309455E-15));
#520=CARTESIAN_POINT('',(-2.77664013689735E-15,7.70246171811049,22.6729873366799));
#521=CARTESIAN_POINT('Origin',(0.,7.70246171811049,0.));
#522=CARTESIAN_POINT('Origin',(0.,7.70246171811049,0.));
#523=CARTESIAN_POINT('Origin',(0.,0.869827001673599,0.));
#524=CARTESIAN_POINT('Origin',(0.,8.44211572145838,0.));
#525=CARTESIAN_POINT('',(-2.81668763803891E-15,8.44211572145838,23.));
#526=CARTESIAN_POINT('Origin',(-2.69422295812418E-15,8.44211572145838,22.));
#527=CARTESIAN_POINT('',(23.0000000000001,8.44211572145838,2.81668763803892E-15));
#528=CARTESIAN_POINT('Origin',(0.,8.44211572145838,0.));
#529=CARTESIAN_POINT('Origin',(0.,8.44211572145838,0.));
#530=CARTESIAN_POINT('Origin',(0.,11.2123609394869,0.));
#531=CARTESIAN_POINT('',(23.0000000000001,13.9826061575154,2.81668763803892E-15));
#532=CARTESIAN_POINT('',(23.0000000000001,11.2123609394869,2.81668763803892E-15));
#533=CARTESIAN_POINT('',(-2.81668763803893E-15,13.9826061575154,23.0000000000001));
#534=CARTESIAN_POINT('Origin',(0.,13.9826061575154,0.));
#535=CARTESIAN_POINT('Origin',(0.,13.9826061575154,0.));
#536=CARTESIAN_POINT('Origin',(0.,13.9826061575154,0.));
#537=CARTESIAN_POINT('',(-2.74320883009011E-15,14.3290163190293,22.4000000000003));
#538=CARTESIAN_POINT('Origin',(-2.76770176607303E-15,13.9826061575154,22.6000000000001));
#539=CARTESIAN_POINT('',(22.4000000000003,14.3290163190293,2.74320883009011E-15));
#540=CARTESIAN_POINT('Origin',(0.,14.3290163190293,0.));
#541=CARTESIAN_POINT('Origin',(0.,14.3290163190293,0.));
#542=CARTESIAN_POINT('Origin',(0.,12.9145081595147,0.));
#543=CARTESIAN_POINT('',(17.5,11.5,2.14313189850787E-15));
#544=CARTESIAN_POINT('Origin',(0.,11.5,0.));
#545=CARTESIAN_POINT('',(19.9500000000002,12.9145081595147,2.44317036429899E-15));
#546=CARTESIAN_POINT('Origin',(0.,12.,0.));
#547=CARTESIAN_POINT('',(17.5,12.5,2.14313189850787E-15));
#548=CARTESIAN_POINT('',(17.5,12.,2.14313189850787E-15));
#549=CARTESIAN_POINT('Origin',(0.,12.5,0.));
#550=CARTESIAN_POINT('Origin',(0.,15.2062493576376,0.));
#551=CARTESIAN_POINT('',(22.9124987152752,17.9124987152753,2.80597182121296E-15));
#552=CARTESIAN_POINT('',(20.2062493576376,15.2062493576376,2.47455185986042E-15));
#553=CARTESIAN_POINT('',(-2.80597182121296E-15,17.9124987152753,22.9124987152752));
#554=CARTESIAN_POINT('Origin',(0.,17.9124987152753,0.));
#555=CARTESIAN_POINT('Origin',(0.,17.9124987152753,0.));
#556=CARTESIAN_POINT('Origin',(0.,18.1953414277499,0.));
#557=CARTESIAN_POINT('',(-2.81948043007156E-15,18.1216260137299,23.0228048775744));
#558=CARTESIAN_POINT('Origin',(-2.77133357896358E-15,18.1953414277499,22.6296560028009));
#559=CARTESIAN_POINT('',(23.0228048775744,18.1216260137299,2.81948043007156E-15));
#560=CARTESIAN_POINT('Origin',(0.,18.1216260137299,0.));
#561=CARTESIAN_POINT('Origin',(0.,18.1216260137299,0.));
#562=CARTESIAN_POINT('Origin',(0.,20.060813006865,0.));
#563=CARTESIAN_POINT('',(23.75,22.,2.90853614797496E-15));
#564=CARTESIAN_POINT('',(23.3864024387872,20.060813006865,2.86400828902326E-15));
#565=CARTESIAN_POINT('Origin',(0.,22.,0.));
#566=CARTESIAN_POINT('Origin',(-28.,22.,0.));
#567=CARTESIAN_POINT('',(28.0000000000001,22.,3.4290110376126E-15));
#568=CARTESIAN_POINT('Origin',(0.,22.,0.));
#569=CARTESIAN_POINT('Origin',(0.,20.2,0.));
#570=CARTESIAN_POINT('',(-3.42901103761261E-15,18.4,28.0000000000001));
#571=CARTESIAN_POINT('',(28.0000000000001,18.4,3.4290110376126E-15));
#572=CARTESIAN_POINT('Origin',(0.,18.4,0.));
#573=CARTESIAN_POINT('Origin',(0.,18.4,0.));
#574=CARTESIAN_POINT('',(28.0000000000001,20.2,3.4290110376126E-15));
#575=CARTESIAN_POINT('Origin',(0.,18.4,0.));
#576=CARTESIAN_POINT('',(-3.38002516564671E-15,18.,27.6000000000001));
#577=CARTESIAN_POINT('Origin',(0.,18.,0.));
#578=CARTESIAN_POINT('Origin',(-3.38002516564671E-15,18.4,27.6000000000001));
#579=CARTESIAN_POINT('Origin',(-25.1500000000003,18.,0.));
#580=CARTESIAN_POINT('',(-3.07998669985563E-15,18.,25.1500000000003));
#581=CARTESIAN_POINT('Origin',(0.,18.,0.));
#582=CARTESIAN_POINT('Origin',(0.,17.9,0.));
#583=CARTESIAN_POINT('',(-3.06774023186411E-15,17.9,25.05));
#584=CARTESIAN_POINT('Origin',(-3.07998669985559E-15,17.9,25.15));
#585=CARTESIAN_POINT('',(25.05,17.9,3.06774023186411E-15));
#586=CARTESIAN_POINT('Origin',(0.,17.9,0.));
#587=CARTESIAN_POINT('Origin',(0.,17.9,0.));
#588=CARTESIAN_POINT('Origin',(0.,10.1122715261266,0.));
#589=CARTESIAN_POINT('',(-3.06774023186411E-15,2.32454305225315,25.05));
#590=CARTESIAN_POINT('',(25.05,2.32454305225315,3.06774023186411E-15));
#591=CARTESIAN_POINT('Origin',(0.,2.32454305225315,0.));
#592=CARTESIAN_POINT('Origin',(0.,2.32454305225315,0.));
#593=CARTESIAN_POINT('',(25.05,10.1122715261266,3.06774023186411E-15));
#594=CARTESIAN_POINT('Origin',(0.,2.32454305225315,0.));
#595=CARTESIAN_POINT('',(-3.02884807109193E-15,1.93312676272001,24.7324214067332));
#596=CARTESIAN_POINT('',(24.7324214067332,1.93312676272001,3.02884807109193E-15));
#597=CARTESIAN_POINT('Origin',(0.,1.93312676272001,0.));
#598=CARTESIAN_POINT('Origin',(-3.01875435989826E-15,2.32454305225315,24.6500000000003));
#599=CARTESIAN_POINT('Origin',(0.,1.93312676272001,0.));
#600=CARTESIAN_POINT('Origin',(0.,0.971928200401513,0.));
#601=CARTESIAN_POINT('',(-1.91081967767041E-15,0.0107296380830152,15.6030267584156));
#602=CARTESIAN_POINT('',(15.6030267584156,0.0107296380830153,1.91081967767041E-15));
#603=CARTESIAN_POINT('Origin',(0.,0.0107296380830152,0.));
#604=CARTESIAN_POINT('Origin',(0.,0.0107296380830152,0.));
#605=CARTESIAN_POINT('',(20.1677240825744,0.971928200401513,2.46983387438117E-15));
#606=CARTESIAN_POINT('Origin',(0.,0.500000000000074,0.));
#607=CARTESIAN_POINT('Origin',(-1.89820253867841E-15,0.500000000000074,
15.5000000000001));
#608=UNCERTAINTY_MEASURE_WITH_UNIT(LENGTH_MEASURE(0.01),#612,
'DISTANCE_ACCURACY_VALUE',
'Maximum model space distance between geometric entities at asserted c
onnectivities');
#609=UNCERTAINTY_MEASURE_WITH_UNIT(LENGTH_MEASURE(0.01),#612,
'DISTANCE_ACCURACY_VALUE',
'Maximum model space distance between geometric entities at asserted c
onnectivities');
#610=(
GEOMETRIC_REPRESENTATION_CONTEXT(3)
GLOBAL_UNCERTAINTY_ASSIGNED_CONTEXT((#608))
GLOBAL_UNIT_ASSIGNED_CONTEXT((#612,#614,#615))
REPRESENTATION_CONTEXT('','3D')
);
#611=(
GEOMETRIC_REPRESENTATION_CONTEXT(3)
GLOBAL_UNCERTAINTY_ASSIGNED_CONTEXT((#609))
GLOBAL_UNIT_ASSIGNED_CONTEXT((#612,#614,#615))
REPRESENTATION_CONTEXT('','3D')
);
#612=(
LENGTH_UNIT()
NAMED_UNIT(*)
SI_UNIT(.MILLI.,.METRE.)
);
#613=(
LENGTH_UNIT()
NAMED_UNIT(*)
SI_UNIT(.CENTI.,.METRE.)
);
#614=(
NAMED_UNIT(*)
PLANE_ANGLE_UNIT()
SI_UNIT($,.RADIAN.)
);
#615=(
NAMED_UNIT(*)
SI_UNIT($,.STERADIAN.)
SOLID_ANGLE_UNIT()
);
#616=SHAPE_DEFINITION_REPRESENTATION(#617,#618);
#617=PRODUCT_DEFINITION_SHAPE('',$,#620);
#618=SHAPE_REPRESENTATION('',(#336),#610);
#619=PRODUCT_DEFINITION_CONTEXT('part definition',#624,'design');
#620=PRODUCT_DEFINITION('881220z','881220z',#621,#619);
#621=PRODUCT_DEFINITION_FORMATION('',$,#626);
#622=PRODUCT_RELATED_PRODUCT_CATEGORY('881220z','881220z',(#626));
#623=APPLICATION_PROTOCOL_DEFINITION('international standard',
'automotive_design',2009,#624);
#624=APPLICATION_CONTEXT(
'Core Data for Automotive Mechanical Design Process');
#625=PRODUCT_CONTEXT('part definition',#624,'mechanical');
#626=PRODUCT('881220z','881220z',$,(#625));
#627=PRESENTATION_STYLE_ASSIGNMENT((#628));
#628=SURFACE_STYLE_USAGE(.BOTH.,#631);
#629=SURFACE_STYLE_RENDERING_WITH_PROPERTIES($,#635,(#630));
#630=SURFACE_STYLE_TRANSPARENT(0.);
#631=SURFACE_SIDE_STYLE('',(#632,#629));
#632=SURFACE_STYLE_FILL_AREA(#633);
#633=FILL_AREA_STYLE('',(#634));
#634=FILL_AREA_STYLE_COLOUR('',#635);
#635=COLOUR_RGB('',0.749019607843137,0.749019607843137,0.749019607843137);
ENDSEC;
END-ISO-10303-21;
