ISO-10303-21;
HEADER;
/* Generated by software containing ST-Developer
 * from STEP Tools, Inc. (www.steptools.com) 
 */

FILE_DESCRIPTION(
/* description */ (''),
/* implementation_level */ '2;1');

FILE_NAME(
/* name */ '881200z.stp',
/* time_stamp */ '2024-05-29T15:56:35+02:00',
/* author */ ('corinna'),
/* organization */ (''),
/* preprocessor_version */ 'ST-DEVELOPER v20',
/* originating_system */ 'Autodesk Inventor 2024',
/* authorisation */ '');

FILE_SCHEMA (('AUTOMOTIVE_DESIGN { 1 0 10303 214 3 1 1 }'));
ENDSEC;

DATA;
#10=MECHANICAL_DESIGN_GEOMETRIC_PRESENTATION_REPRESENTATION('',(#13),#611);
#11=SHAPE_REPRESENTATION_RELATIONSHIP('SRR','None',#618,#12);
#12=ADVANCED_BREP_SHAPE_REPRESENTATION('',(#14),#610);
#13=STYLED_ITEM('',(#627),#14);
#14=MANIFOLD_SOLID_BREP('Volumenk\X\F6rper1',#314);
#15=FACE_BOUND('',#57,.T.);
#16=FACE_BOUND('',#61,.T.);
#17=PLANE('',#359);
#18=PLANE('',#367);
#19=CONICAL_SURFACE('',#346,14.95,1.04719755119658);
#20=CONICAL_SURFACE('',#350,15.2062493576376,0.785398163397444);
#21=CONICAL_SURFACE('',#357,18.3864024387872,0.185347949995694);
#22=CONICAL_SURFACE('',#380,15.1677240825747,1.36325612101129);
#23=CONICAL_SURFACE('',#387,13.9182468341702,0.832556092385793);
#24=TOROIDAL_SURFACE('',#342,17.5999999999999,0.4);
#25=TOROIDAL_SURFACE('',#353,17.6296560028006,0.4);
#26=TOROIDAL_SURFACE('',#364,22.5999999999999,0.4);
#27=TOROIDAL_SURFACE('',#369,20.1500000000001,0.100000000000137);
#28=TOROIDAL_SURFACE('',#376,19.65,0.4);
#29=TOROIDAL_SURFACE('',#383,10.5000000000001,0.5);
#30=TOROIDAL_SURFACE('',#390,17.,1.);
#31=FACE_OUTER_BOUND('',#49,.T.);
#32=FACE_OUTER_BOUND('',#50,.T.);
#33=FACE_OUTER_BOUND('',#51,.T.);
#34=FACE_OUTER_BOUND('',#52,.T.);
#35=FACE_OUTER_BOUND('',#53,.T.);
#36=FACE_OUTER_BOUND('',#54,.T.);
#37=FACE_OUTER_BOUND('',#55,.T.);
#38=FACE_OUTER_BOUND('',#56,.T.);
#39=FACE_OUTER_BOUND('',#58,.T.);
#40=FACE_OUTER_BOUND('',#59,.T.);
#41=FACE_OUTER_BOUND('',#60,.T.);
#42=FACE_OUTER_BOUND('',#62,.T.);
#43=FACE_OUTER_BOUND('',#63,.T.);
#44=FACE_OUTER_BOUND('',#64,.T.);
#45=FACE_OUTER_BOUND('',#65,.T.);
#46=FACE_OUTER_BOUND('',#66,.T.);
#47=FACE_OUTER_BOUND('',#67,.T.);
#48=FACE_OUTER_BOUND('',#68,.T.);
#49=EDGE_LOOP('',(#200,#201,#202,#203,#204,#205));
#50=EDGE_LOOP('',(#206,#207,#208,#209,#210,#211));
#51=EDGE_LOOP('',(#212,#213,#214,#215,#216));
#52=EDGE_LOOP('',(#217,#218,#219,#220));
#53=EDGE_LOOP('',(#221,#222,#223,#224,#225));
#54=EDGE_LOOP('',(#226,#227,#228,#229,#230,#231));
#55=EDGE_LOOP('',(#232,#233,#234,#235,#236));
#56=EDGE_LOOP('',(#237));
#57=EDGE_LOOP('',(#238));
#58=EDGE_LOOP('',(#239,#240,#241,#242,#243));
#59=EDGE_LOOP('',(#244,#245,#246,#247,#248));
#60=EDGE_LOOP('',(#249));
#61=EDGE_LOOP('',(#250));
#62=EDGE_LOOP('',(#251,#252,#253,#254,#255));
#63=EDGE_LOOP('',(#256,#257,#258,#259,#260,#261));
#64=EDGE_LOOP('',(#262,#263,#264,#265,#266,#267));
#65=EDGE_LOOP('',(#268,#269,#270,#271,#272,#273));
#66=EDGE_LOOP('',(#274,#275,#276,#277,#278,#279));
#67=EDGE_LOOP('',(#280,#281,#282,#283,#284,#285));
#68=EDGE_LOOP('',(#286,#287,#288,#289,#290,#291));
#69=LINE('',#519,#78);
#70=LINE('',#533,#79);
#71=LINE('',#536,#80);
#72=LINE('',#540,#81);
#73=LINE('',#552,#82);
#74=LINE('',#562,#83);
#75=LINE('',#581,#84);
#76=LINE('',#593,#85);
#77=LINE('',#602,#86);
#78=VECTOR('',#398,18.);
#79=VECTOR('',#417,14.95);
#80=VECTOR('',#420,12.5);
#81=VECTOR('',#425,15.2062493576376);
#82=VECTOR('',#440,18.3864024387872);
#83=VECTOR('',#453,23.);
#84=VECTOR('',#478,20.05);
#85=VECTOR('',#493,15.1677240825747);
#86=VECTOR('',#504,13.9182468341702);
#87=CIRCLE('',#338,18.);
#88=CIRCLE('',#339,17.9999999999999);
#89=CIRCLE('',#340,17.9999999999999);
#90=CIRCLE('',#341,18.);
#91=CIRCLE('',#343,0.4);
#92=CIRCLE('',#344,17.3999999999999);
#93=CIRCLE('',#345,17.3999999999999);
#94=CIRCLE('',#347,12.5);
#95=CIRCLE('',#349,12.5);
#96=CIRCLE('',#351,17.9124987152752);
#97=CIRCLE('',#352,17.9124987152752);
#98=CIRCLE('',#354,0.4);
#99=CIRCLE('',#355,18.0228048775743);
#100=CIRCLE('',#356,18.0228048775743);
#101=CIRCLE('',#358,18.75);
#102=CIRCLE('',#360,23.);
#103=CIRCLE('',#362,22.9999999999999);
#104=CIRCLE('',#363,22.9999999999999);
#105=CIRCLE('',#365,22.5999999999999);
#106=CIRCLE('',#366,0.4);
#107=CIRCLE('',#368,20.1500000000001);
#108=CIRCLE('',#370,0.100000000000137);
#109=CIRCLE('',#371,20.05);
#110=CIRCLE('',#372,20.05);
#111=CIRCLE('',#374,20.05);
#112=CIRCLE('',#375,20.05);
#113=CIRCLE('',#377,19.732421406733);
#114=CIRCLE('',#378,0.4);
#115=CIRCLE('',#379,19.732421406733);
#116=CIRCLE('',#381,10.6030267584164);
#117=CIRCLE('',#382,10.6030267584164);
#118=CIRCLE('',#384,10.1635063316598);
#119=CIRCLE('',#385,0.5);
#120=CIRCLE('',#386,10.1635063316598);
#121=CIRCLE('',#388,17.6729873366805);
#122=CIRCLE('',#389,17.6729873366805);
#123=CIRCLE('',#391,1.);
#124=VERTEX_POINT('',#515);
#125=VERTEX_POINT('',#516);
#126=VERTEX_POINT('',#518);
#127=VERTEX_POINT('',#520);
#128=VERTEX_POINT('',#525);
#129=VERTEX_POINT('',#527);
#130=VERTEX_POINT('',#531);
#131=VERTEX_POINT('',#535);
#132=VERTEX_POINT('',#539);
#133=VERTEX_POINT('',#541);
#134=VERTEX_POINT('',#545);
#135=VERTEX_POINT('',#547);
#136=VERTEX_POINT('',#551);
#137=VERTEX_POINT('',#555);
#138=VERTEX_POINT('',#558);
#139=VERTEX_POINT('',#559);
#140=VERTEX_POINT('',#564);
#141=VERTEX_POINT('',#568);
#142=VERTEX_POINT('',#571);
#143=VERTEX_POINT('',#573);
#144=VERTEX_POINT('',#577);
#145=VERTEX_POINT('',#578);
#146=VERTEX_POINT('',#583);
#147=VERTEX_POINT('',#584);
#148=VERTEX_POINT('',#589);
#149=VERTEX_POINT('',#590);
#150=VERTEX_POINT('',#595);
#151=VERTEX_POINT('',#596);
#152=VERTEX_POINT('',#601);
#153=VERTEX_POINT('',#603);
#154=EDGE_CURVE('',#124,#125,#87,.T.);
#155=EDGE_CURVE('',#125,#126,#69,.T.);
#156=EDGE_CURVE('',#127,#126,#88,.T.);
#157=EDGE_CURVE('',#126,#127,#89,.T.);
#158=EDGE_CURVE('',#125,#124,#90,.T.);
#159=EDGE_CURVE('',#127,#128,#91,.T.);
#160=EDGE_CURVE('',#129,#128,#92,.T.);
#161=EDGE_CURVE('',#128,#129,#93,.T.);
#162=EDGE_CURVE('',#130,#130,#94,.T.);
#163=EDGE_CURVE('',#130,#129,#70,.T.);
#164=EDGE_CURVE('',#130,#131,#71,.T.);
#165=EDGE_CURVE('',#131,#131,#95,.T.);
#166=EDGE_CURVE('',#131,#132,#72,.T.);
#167=EDGE_CURVE('',#133,#132,#96,.T.);
#168=EDGE_CURVE('',#132,#133,#97,.T.);
#169=EDGE_CURVE('',#133,#134,#98,.T.);
#170=EDGE_CURVE('',#135,#134,#99,.T.);
#171=EDGE_CURVE('',#134,#135,#100,.T.);
#172=EDGE_CURVE('',#135,#136,#73,.T.);
#173=EDGE_CURVE('',#136,#136,#101,.T.);
#174=EDGE_CURVE('',#137,#137,#102,.T.);
#175=EDGE_CURVE('',#138,#139,#103,.T.);
#176=EDGE_CURVE('',#139,#138,#104,.T.);
#177=EDGE_CURVE('',#139,#137,#74,.T.);
#178=EDGE_CURVE('',#140,#140,#105,.T.);
#179=EDGE_CURVE('',#140,#138,#106,.T.);
#180=EDGE_CURVE('',#141,#141,#107,.T.);
#181=EDGE_CURVE('',#141,#142,#108,.T.);
#182=EDGE_CURVE('',#143,#142,#109,.T.);
#183=EDGE_CURVE('',#142,#143,#110,.T.);
#184=EDGE_CURVE('',#144,#145,#111,.T.);
#185=EDGE_CURVE('',#145,#144,#112,.T.);
#186=EDGE_CURVE('',#145,#143,#75,.T.);
#187=EDGE_CURVE('',#146,#147,#113,.T.);
#188=EDGE_CURVE('',#146,#144,#114,.T.);
#189=EDGE_CURVE('',#147,#146,#115,.T.);
#190=EDGE_CURVE('',#148,#149,#116,.T.);
#191=EDGE_CURVE('',#149,#148,#117,.T.);
#192=EDGE_CURVE('',#149,#147,#76,.T.);
#193=EDGE_CURVE('',#150,#151,#118,.T.);
#194=EDGE_CURVE('',#150,#148,#119,.T.);
#195=EDGE_CURVE('',#151,#150,#120,.T.);
#196=EDGE_CURVE('',#151,#152,#77,.T.);
#197=EDGE_CURVE('',#153,#152,#121,.T.);
#198=EDGE_CURVE('',#152,#153,#122,.T.);
#199=EDGE_CURVE('',#153,#124,#123,.T.);
#200=ORIENTED_EDGE('',*,*,#154,.T.);
#201=ORIENTED_EDGE('',*,*,#155,.T.);
#202=ORIENTED_EDGE('',*,*,#156,.F.);
#203=ORIENTED_EDGE('',*,*,#157,.F.);
#204=ORIENTED_EDGE('',*,*,#155,.F.);
#205=ORIENTED_EDGE('',*,*,#158,.T.);
#206=ORIENTED_EDGE('',*,*,#156,.T.);
#207=ORIENTED_EDGE('',*,*,#157,.T.);
#208=ORIENTED_EDGE('',*,*,#159,.T.);
#209=ORIENTED_EDGE('',*,*,#160,.F.);
#210=ORIENTED_EDGE('',*,*,#161,.F.);
#211=ORIENTED_EDGE('',*,*,#159,.F.);
#212=ORIENTED_EDGE('',*,*,#162,.F.);
#213=ORIENTED_EDGE('',*,*,#163,.T.);
#214=ORIENTED_EDGE('',*,*,#160,.T.);
#215=ORIENTED_EDGE('',*,*,#161,.T.);
#216=ORIENTED_EDGE('',*,*,#163,.F.);
#217=ORIENTED_EDGE('',*,*,#162,.T.);
#218=ORIENTED_EDGE('',*,*,#164,.T.);
#219=ORIENTED_EDGE('',*,*,#165,.F.);
#220=ORIENTED_EDGE('',*,*,#164,.F.);
#221=ORIENTED_EDGE('',*,*,#165,.T.);
#222=ORIENTED_EDGE('',*,*,#166,.T.);
#223=ORIENTED_EDGE('',*,*,#167,.F.);
#224=ORIENTED_EDGE('',*,*,#168,.F.);
#225=ORIENTED_EDGE('',*,*,#166,.F.);
#226=ORIENTED_EDGE('',*,*,#167,.T.);
#227=ORIENTED_EDGE('',*,*,#168,.T.);
#228=ORIENTED_EDGE('',*,*,#169,.T.);
#229=ORIENTED_EDGE('',*,*,#170,.F.);
#230=ORIENTED_EDGE('',*,*,#171,.F.);
#231=ORIENTED_EDGE('',*,*,#169,.F.);
#232=ORIENTED_EDGE('',*,*,#171,.T.);
#233=ORIENTED_EDGE('',*,*,#172,.T.);
#234=ORIENTED_EDGE('',*,*,#173,.F.);
#235=ORIENTED_EDGE('',*,*,#172,.F.);
#236=ORIENTED_EDGE('',*,*,#170,.T.);
#237=ORIENTED_EDGE('',*,*,#174,.F.);
#238=ORIENTED_EDGE('',*,*,#173,.T.);
#239=ORIENTED_EDGE('',*,*,#175,.F.);
#240=ORIENTED_EDGE('',*,*,#176,.F.);
#241=ORIENTED_EDGE('',*,*,#177,.T.);
#242=ORIENTED_EDGE('',*,*,#174,.T.);
#243=ORIENTED_EDGE('',*,*,#177,.F.);
#244=ORIENTED_EDGE('',*,*,#178,.F.);
#245=ORIENTED_EDGE('',*,*,#179,.T.);
#246=ORIENTED_EDGE('',*,*,#175,.T.);
#247=ORIENTED_EDGE('',*,*,#176,.T.);
#248=ORIENTED_EDGE('',*,*,#179,.F.);
#249=ORIENTED_EDGE('',*,*,#178,.T.);
#250=ORIENTED_EDGE('',*,*,#180,.F.);
#251=ORIENTED_EDGE('',*,*,#180,.T.);
#252=ORIENTED_EDGE('',*,*,#181,.T.);
#253=ORIENTED_EDGE('',*,*,#182,.F.);
#254=ORIENTED_EDGE('',*,*,#183,.F.);
#255=ORIENTED_EDGE('',*,*,#181,.F.);
#256=ORIENTED_EDGE('',*,*,#184,.F.);
#257=ORIENTED_EDGE('',*,*,#185,.F.);
#258=ORIENTED_EDGE('',*,*,#186,.T.);
#259=ORIENTED_EDGE('',*,*,#182,.T.);
#260=ORIENTED_EDGE('',*,*,#183,.T.);
#261=ORIENTED_EDGE('',*,*,#186,.F.);
#262=ORIENTED_EDGE('',*,*,#187,.F.);
#263=ORIENTED_EDGE('',*,*,#188,.T.);
#264=ORIENTED_EDGE('',*,*,#184,.T.);
#265=ORIENTED_EDGE('',*,*,#185,.T.);
#266=ORIENTED_EDGE('',*,*,#188,.F.);
#267=ORIENTED_EDGE('',*,*,#189,.F.);
#268=ORIENTED_EDGE('',*,*,#190,.F.);
#269=ORIENTED_EDGE('',*,*,#191,.F.);
#270=ORIENTED_EDGE('',*,*,#192,.T.);
#271=ORIENTED_EDGE('',*,*,#189,.T.);
#272=ORIENTED_EDGE('',*,*,#187,.T.);
#273=ORIENTED_EDGE('',*,*,#192,.F.);
#274=ORIENTED_EDGE('',*,*,#193,.F.);
#275=ORIENTED_EDGE('',*,*,#194,.T.);
#276=ORIENTED_EDGE('',*,*,#190,.T.);
#277=ORIENTED_EDGE('',*,*,#191,.T.);
#278=ORIENTED_EDGE('',*,*,#194,.F.);
#279=ORIENTED_EDGE('',*,*,#195,.F.);
#280=ORIENTED_EDGE('',*,*,#193,.T.);
#281=ORIENTED_EDGE('',*,*,#196,.T.);
#282=ORIENTED_EDGE('',*,*,#197,.F.);
#283=ORIENTED_EDGE('',*,*,#198,.F.);
#284=ORIENTED_EDGE('',*,*,#196,.F.);
#285=ORIENTED_EDGE('',*,*,#195,.T.);
#286=ORIENTED_EDGE('',*,*,#197,.T.);
#287=ORIENTED_EDGE('',*,*,#198,.T.);
#288=ORIENTED_EDGE('',*,*,#199,.T.);
#289=ORIENTED_EDGE('',*,*,#158,.F.);
#290=ORIENTED_EDGE('',*,*,#154,.F.);
#291=ORIENTED_EDGE('',*,*,#199,.F.);
#292=CYLINDRICAL_SURFACE('',#337,18.);
#293=CYLINDRICAL_SURFACE('',#348,12.5);
#294=CYLINDRICAL_SURFACE('',#361,23.);
#295=CYLINDRICAL_SURFACE('',#373,20.05);
#296=ADVANCED_FACE('',(#31),#292,.F.);
#297=ADVANCED_FACE('',(#32),#24,.F.);
#298=ADVANCED_FACE('',(#33),#19,.T.);
#299=ADVANCED_FACE('',(#34),#293,.F.);
#300=ADVANCED_FACE('',(#35),#20,.F.);
#301=ADVANCED_FACE('',(#36),#25,.F.);
#302=ADVANCED_FACE('',(#37),#21,.F.);
#303=ADVANCED_FACE('',(#38,#15),#17,.T.);
#304=ADVANCED_FACE('',(#39),#294,.T.);
#305=ADVANCED_FACE('',(#40),#26,.T.);
#306=ADVANCED_FACE('',(#41,#16),#18,.T.);
#307=ADVANCED_FACE('',(#42),#27,.F.);
#308=ADVANCED_FACE('',(#43),#295,.T.);
#309=ADVANCED_FACE('',(#44),#28,.T.);
#310=ADVANCED_FACE('',(#45),#22,.T.);
#311=ADVANCED_FACE('',(#46),#29,.T.);
#312=ADVANCED_FACE('',(#47),#23,.F.);
#313=ADVANCED_FACE('',(#48),#30,.F.);
#314=CLOSED_SHELL('',(#296,#297,#298,#299,#300,#301,#302,#303,#304,#305,
#306,#307,#308,#309,#310,#311,#312,#313));
#315=DERIVED_UNIT_ELEMENT(#318,1.);
#316=DERIVED_UNIT_ELEMENT(#613,-3.);
#317=DIMENSIONAL_EXPONENTS(0.,1.,0.,0.,0.,0.,0.);
#318=(
CONVERSION_BASED_UNIT('gram',#320)
MASS_UNIT()
NAMED_UNIT(#317)
);
#319=(
MASS_UNIT()
NAMED_UNIT(*)
SI_UNIT(.KILO.,.GRAM.)
);
#320=MASS_MEASURE_WITH_UNIT(MASS_MEASURE(0.001),#319);
#321=DERIVED_UNIT((#315,#316));
#322=MEASURE_REPRESENTATION_ITEM('density measure',
POSITIVE_RATIO_MEASURE(1.),#321);
#323=PROPERTY_DEFINITION_REPRESENTATION(#328,#325);
#324=PROPERTY_DEFINITION_REPRESENTATION(#329,#326);
#325=REPRESENTATION('material name',(#327),#610);
#326=REPRESENTATION('density',(#322),#610);
#327=DESCRIPTIVE_REPRESENTATION_ITEM('Generisch','Generisch');
#328=PROPERTY_DEFINITION('material property','material name',#620);
#329=PROPERTY_DEFINITION('material property','density of part',#620);
#330=DATE_TIME_ROLE('creation_date');
#331=APPLIED_DATE_AND_TIME_ASSIGNMENT(#332,#330,(#620));
#332=DATE_AND_TIME(#333,#334);
#333=CALENDAR_DATE(2024,29,5);
#334=LOCAL_TIME(0,0,0.,#335);
#335=COORDINATED_UNIVERSAL_TIME_OFFSET(0,0,.BEHIND.);
#336=AXIS2_PLACEMENT_3D('',#513,#392,#393);
#337=AXIS2_PLACEMENT_3D('',#514,#394,#395);
#338=AXIS2_PLACEMENT_3D('',#517,#396,#397);
#339=AXIS2_PLACEMENT_3D('',#521,#399,#400);
#340=AXIS2_PLACEMENT_3D('',#522,#401,#402);
#341=AXIS2_PLACEMENT_3D('',#523,#403,#404);
#342=AXIS2_PLACEMENT_3D('',#524,#405,#406);
#343=AXIS2_PLACEMENT_3D('',#526,#407,#408);
#344=AXIS2_PLACEMENT_3D('',#528,#409,#410);
#345=AXIS2_PLACEMENT_3D('',#529,#411,#412);
#346=AXIS2_PLACEMENT_3D('',#530,#413,#414);
#347=AXIS2_PLACEMENT_3D('',#532,#415,#416);
#348=AXIS2_PLACEMENT_3D('',#534,#418,#419);
#349=AXIS2_PLACEMENT_3D('',#537,#421,#422);
#350=AXIS2_PLACEMENT_3D('',#538,#423,#424);
#351=AXIS2_PLACEMENT_3D('',#542,#426,#427);
#352=AXIS2_PLACEMENT_3D('',#543,#428,#429);
#353=AXIS2_PLACEMENT_3D('',#544,#430,#431);
#354=AXIS2_PLACEMENT_3D('',#546,#432,#433);
#355=AXIS2_PLACEMENT_3D('',#548,#434,#435);
#356=AXIS2_PLACEMENT_3D('',#549,#436,#437);
#357=AXIS2_PLACEMENT_3D('',#550,#438,#439);
#358=AXIS2_PLACEMENT_3D('',#553,#441,#442);
#359=AXIS2_PLACEMENT_3D('',#554,#443,#444);
#360=AXIS2_PLACEMENT_3D('',#556,#445,#446);
#361=AXIS2_PLACEMENT_3D('',#557,#447,#448);
#362=AXIS2_PLACEMENT_3D('',#560,#449,#450);
#363=AXIS2_PLACEMENT_3D('',#561,#451,#452);
#364=AXIS2_PLACEMENT_3D('',#563,#454,#455);
#365=AXIS2_PLACEMENT_3D('',#565,#456,#457);
#366=AXIS2_PLACEMENT_3D('',#566,#458,#459);
#367=AXIS2_PLACEMENT_3D('',#567,#460,#461);
#368=AXIS2_PLACEMENT_3D('',#569,#462,#463);
#369=AXIS2_PLACEMENT_3D('',#570,#464,#465);
#370=AXIS2_PLACEMENT_3D('',#572,#466,#467);
#371=AXIS2_PLACEMENT_3D('',#574,#468,#469);
#372=AXIS2_PLACEMENT_3D('',#575,#470,#471);
#373=AXIS2_PLACEMENT_3D('',#576,#472,#473);
#374=AXIS2_PLACEMENT_3D('',#579,#474,#475);
#375=AXIS2_PLACEMENT_3D('',#580,#476,#477);
#376=AXIS2_PLACEMENT_3D('',#582,#479,#480);
#377=AXIS2_PLACEMENT_3D('',#585,#481,#482);
#378=AXIS2_PLACEMENT_3D('',#586,#483,#484);
#379=AXIS2_PLACEMENT_3D('',#587,#485,#486);
#380=AXIS2_PLACEMENT_3D('',#588,#487,#488);
#381=AXIS2_PLACEMENT_3D('',#591,#489,#490);
#382=AXIS2_PLACEMENT_3D('',#592,#491,#492);
#383=AXIS2_PLACEMENT_3D('',#594,#494,#495);
#384=AXIS2_PLACEMENT_3D('',#597,#496,#497);
#385=AXIS2_PLACEMENT_3D('',#598,#498,#499);
#386=AXIS2_PLACEMENT_3D('',#599,#500,#501);
#387=AXIS2_PLACEMENT_3D('',#600,#502,#503);
#388=AXIS2_PLACEMENT_3D('',#604,#505,#506);
#389=AXIS2_PLACEMENT_3D('',#605,#507,#508);
#390=AXIS2_PLACEMENT_3D('',#606,#509,#510);
#391=AXIS2_PLACEMENT_3D('',#607,#511,#512);
#392=DIRECTION('axis',(0.,0.,1.));
#393=DIRECTION('refdir',(1.,0.,0.));
#394=DIRECTION('center_axis',(0.,-1.,0.));
#395=DIRECTION('ref_axis',(-1.,0.,0.));
#396=DIRECTION('center_axis',(0.,-1.,0.));
#397=DIRECTION('ref_axis',(1.,0.,0.));
#398=DIRECTION('',(0.,1.,0.));
#399=DIRECTION('center_axis',(0.,-1.,0.));
#400=DIRECTION('ref_axis',(1.,0.,0.));
#401=DIRECTION('center_axis',(0.,-1.,0.));
#402=DIRECTION('ref_axis',(1.,0.,0.));
#403=DIRECTION('center_axis',(0.,-1.,0.));
#404=DIRECTION('ref_axis',(1.,0.,0.));
#405=DIRECTION('center_axis',(0.,-1.,0.));
#406=DIRECTION('ref_axis',(0.,0.,-1.));
#407=DIRECTION('center_axis',(-1.,0.,-1.22464679914735E-16));
#408=DIRECTION('ref_axis',(-1.22464679914735E-16,0.,1.));
#409=DIRECTION('center_axis',(0.,-1.,0.));
#410=DIRECTION('ref_axis',(1.,0.,0.));
#411=DIRECTION('center_axis',(0.,-1.,0.));
#412=DIRECTION('ref_axis',(1.,0.,0.));
#413=DIRECTION('center_axis',(0.,1.,0.));
#414=DIRECTION('ref_axis',(-1.,0.,0.));
#415=DIRECTION('center_axis',(0.,-1.,0.));
#416=DIRECTION('ref_axis',(1.,0.,0.));
#417=DIRECTION('',(0.866025403784432,0.500000000000012,1.0605752387249E-16));
#418=DIRECTION('center_axis',(0.,-1.,0.));
#419=DIRECTION('ref_axis',(-1.,0.,0.));
#420=DIRECTION('',(0.,1.,0.));
#421=DIRECTION('center_axis',(0.,-1.,0.));
#422=DIRECTION('ref_axis',(1.,0.,0.));
#423=DIRECTION('center_axis',(0.,1.,0.));
#424=DIRECTION('ref_axis',(-1.,0.,0.));
#425=DIRECTION('',(0.707106781186544,0.707106781186551,8.65956056235489E-17));
#426=DIRECTION('center_axis',(0.,-1.,0.));
#427=DIRECTION('ref_axis',(1.,0.,0.));
#428=DIRECTION('center_axis',(0.,-1.,0.));
#429=DIRECTION('ref_axis',(1.,0.,0.));
#430=DIRECTION('center_axis',(0.,-1.,0.));
#431=DIRECTION('ref_axis',(0.,0.,-1.));
#432=DIRECTION('center_axis',(-1.,0.,-1.22464679914735E-16));
#433=DIRECTION('ref_axis',(-1.22464679914735E-16,0.,1.));
#434=DIRECTION('center_axis',(0.,-1.,0.));
#435=DIRECTION('ref_axis',(1.,0.,0.));
#436=DIRECTION('center_axis',(0.,-1.,0.));
#437=DIRECTION('ref_axis',(1.,0.,0.));
#438=DIRECTION('center_axis',(0.,1.,0.));
#439=DIRECTION('ref_axis',(-1.,0.,0.));
#440=DIRECTION('',(0.184288535050185,0.982872186934322,2.25688364568764E-17));
#441=DIRECTION('center_axis',(0.,-1.,0.));
#442=DIRECTION('ref_axis',(1.,0.,0.));
#443=DIRECTION('center_axis',(0.,1.,0.));
#444=DIRECTION('ref_axis',(0.,0.,1.));
#445=DIRECTION('center_axis',(0.,-1.,0.));
#446=DIRECTION('ref_axis',(1.,0.,0.));
#447=DIRECTION('center_axis',(0.,-1.,0.));
#448=DIRECTION('ref_axis',(-1.,0.,0.));
#449=DIRECTION('center_axis',(0.,-1.,0.));
#450=DIRECTION('ref_axis',(1.,0.,0.));
#451=DIRECTION('center_axis',(0.,-1.,0.));
#452=DIRECTION('ref_axis',(1.,0.,0.));
#453=DIRECTION('',(0.,1.,0.));
#454=DIRECTION('center_axis',(0.,-1.,0.));
#455=DIRECTION('ref_axis',(0.,0.,-1.));
#456=DIRECTION('center_axis',(0.,-1.,0.));
#457=DIRECTION('ref_axis',(1.,0.,0.));
#458=DIRECTION('center_axis',(-1.,0.,-1.22464679914735E-16));
#459=DIRECTION('ref_axis',(-1.22464679914735E-16,0.,1.));
#460=DIRECTION('center_axis',(0.,-1.,0.));
#461=DIRECTION('ref_axis',(0.,0.,-1.));
#462=DIRECTION('center_axis',(0.,-1.,0.));
#463=DIRECTION('ref_axis',(1.,0.,0.));
#464=DIRECTION('center_axis',(0.,-1.,0.));
#465=DIRECTION('ref_axis',(0.,0.,-1.));
#466=DIRECTION('center_axis',(-1.,0.,-1.22464679914735E-16));
#467=DIRECTION('ref_axis',(-1.22464679914735E-16,0.,1.));
#468=DIRECTION('center_axis',(0.,-1.,0.));
#469=DIRECTION('ref_axis',(1.,0.,0.));
#470=DIRECTION('center_axis',(0.,-1.,0.));
#471=DIRECTION('ref_axis',(1.,0.,0.));
#472=DIRECTION('center_axis',(0.,-1.,0.));
#473=DIRECTION('ref_axis',(-1.,0.,0.));
#474=DIRECTION('center_axis',(0.,-1.,0.));
#475=DIRECTION('ref_axis',(1.,0.,0.));
#476=DIRECTION('center_axis',(0.,-1.,0.));
#477=DIRECTION('ref_axis',(1.,0.,0.));
#478=DIRECTION('',(0.,1.,0.));
#479=DIRECTION('center_axis',(0.,-1.,0.));
#480=DIRECTION('ref_axis',(0.,0.,-1.));
#481=DIRECTION('center_axis',(0.,-1.,0.));
#482=DIRECTION('ref_axis',(1.,0.,0.));
#483=DIRECTION('center_axis',(-1.,0.,-1.22464679914735E-16));
#484=DIRECTION('ref_axis',(-1.22464679914735E-16,0.,1.));
#485=DIRECTION('center_axis',(0.,-1.,0.));
#486=DIRECTION('ref_axis',(1.,0.,0.));
#487=DIRECTION('center_axis',(0.,1.,0.));
#488=DIRECTION('ref_axis',(-1.,0.,0.));
#489=DIRECTION('center_axis',(0.,-1.,0.));
#490=DIRECTION('ref_axis',(1.,0.,0.));
#491=DIRECTION('center_axis',(0.,-1.,0.));
#492=DIRECTION('ref_axis',(1.,0.,0.));
#493=DIRECTION('',(0.978540723833684,0.206053516832518,1.19836676527826E-16));
#494=DIRECTION('center_axis',(0.,-1.,0.));
#495=DIRECTION('ref_axis',(0.,0.,-1.));
#496=DIRECTION('center_axis',(0.,-1.,0.));
#497=DIRECTION('ref_axis',(1.,0.,0.));
#498=DIRECTION('center_axis',(-1.,0.,-1.22464679914735E-16));
#499=DIRECTION('ref_axis',(-1.22464679914735E-16,0.,1.));
#500=DIRECTION('center_axis',(0.,-1.,0.));
#501=DIRECTION('ref_axis',(1.,0.,0.));
#502=DIRECTION('center_axis',(0.,1.,0.));
#503=DIRECTION('ref_axis',(-1.,0.,0.));
#504=DIRECTION('',(0.739654003347229,0.672987336680578,9.05814907675709E-17));
#505=DIRECTION('center_axis',(0.,-1.,0.));
#506=DIRECTION('ref_axis',(1.,0.,0.));
#507=DIRECTION('center_axis',(0.,-1.,0.));
#508=DIRECTION('ref_axis',(1.,0.,0.));
#509=DIRECTION('center_axis',(0.,-1.,0.));
#510=DIRECTION('ref_axis',(0.,0.,-1.));
#511=DIRECTION('center_axis',(-1.,0.,-1.22464679914735E-16));
#512=DIRECTION('ref_axis',(-1.22464679914735E-16,0.,1.));
#513=CARTESIAN_POINT('',(0.,0.,0.));
#514=CARTESIAN_POINT('Origin',(0.,11.2123609394869,0.));
#515=CARTESIAN_POINT('',(-2.20436423846524E-15,8.44211572145838,18.));
#516=CARTESIAN_POINT('',(18.,8.44211572145838,2.20436423846523E-15));
#517=CARTESIAN_POINT('Origin',(0.,8.44211572145838,0.));
#518=CARTESIAN_POINT('',(18.,13.9826061575154,2.20436423846523E-15));
#519=CARTESIAN_POINT('',(18.,11.2123609394869,2.20436423846523E-15));
#520=CARTESIAN_POINT('',(-2.20436423846522E-15,13.9826061575154,17.9999999999999));
#521=CARTESIAN_POINT('Origin',(0.,13.9826061575154,0.));
#522=CARTESIAN_POINT('Origin',(0.,13.9826061575154,0.));
#523=CARTESIAN_POINT('Origin',(0.,8.44211572145838,0.));
#524=CARTESIAN_POINT('Origin',(0.,13.9826061575154,0.));
#525=CARTESIAN_POINT('',(-2.13088543051638E-15,14.3290163190292,17.3999999999999));
#526=CARTESIAN_POINT('Origin',(-2.15537836649933E-15,13.9826061575154,17.5999999999999));
#527=CARTESIAN_POINT('',(17.3999999999999,14.3290163190292,2.13088543051638E-15));
#528=CARTESIAN_POINT('Origin',(0.,14.3290163190292,0.));
#529=CARTESIAN_POINT('Origin',(0.,14.3290163190292,0.));
#530=CARTESIAN_POINT('Origin',(0.,12.9145081595146,0.));
#531=CARTESIAN_POINT('',(12.5,11.5,1.53080849893419E-15));
#532=CARTESIAN_POINT('Origin',(0.,11.5,0.));
#533=CARTESIAN_POINT('',(14.95,12.9145081595146,1.83084696472529E-15));
#534=CARTESIAN_POINT('Origin',(0.,12.,0.));
#535=CARTESIAN_POINT('',(12.5,12.5,1.53080849893419E-15));
#536=CARTESIAN_POINT('',(12.5,12.,1.53080849893419E-15));
#537=CARTESIAN_POINT('Origin',(0.,12.5,0.));
#538=CARTESIAN_POINT('Origin',(0.,15.2062493576376,0.));
#539=CARTESIAN_POINT('',(17.9124987152752,17.9124987152753,2.19364842163929E-15));
#540=CARTESIAN_POINT('',(15.2062493576376,15.2062493576376,1.86222846028674E-15));
#541=CARTESIAN_POINT('',(-2.19364842163929E-15,17.9124987152753,17.9124987152752));
#542=CARTESIAN_POINT('Origin',(0.,17.9124987152753,0.));
#543=CARTESIAN_POINT('Origin',(0.,17.9124987152753,0.));
#544=CARTESIAN_POINT('Origin',(0.,18.1953414277499,0.));
#545=CARTESIAN_POINT('',(-2.20715703049787E-15,18.1216260137298,18.0228048775743));
#546=CARTESIAN_POINT('Origin',(-2.15901017938987E-15,18.1953414277499,17.6296560028006));
#547=CARTESIAN_POINT('',(18.0228048775743,18.1216260137298,2.20715703049787E-15));
#548=CARTESIAN_POINT('Origin',(0.,18.1216260137298,0.));
#549=CARTESIAN_POINT('Origin',(0.,18.1216260137298,0.));
#550=CARTESIAN_POINT('Origin',(0.,20.0608130068649,0.));
#551=CARTESIAN_POINT('',(18.75,22.,2.29621274840129E-15));
#552=CARTESIAN_POINT('',(18.3864024387872,20.0608130068649,2.25168488944958E-15));
#553=CARTESIAN_POINT('Origin',(0.,22.,0.));
#554=CARTESIAN_POINT('Origin',(-23.,22.,0.));
#555=CARTESIAN_POINT('',(23.,22.,2.81668763803891E-15));
#556=CARTESIAN_POINT('Origin',(0.,22.,0.));
#557=CARTESIAN_POINT('Origin',(0.,20.2,0.));
#558=CARTESIAN_POINT('',(-2.8166876380389E-15,18.4,22.9999999999999));
#559=CARTESIAN_POINT('',(23.,18.4,2.81668763803891E-15));
#560=CARTESIAN_POINT('Origin',(0.,18.4,0.));
#561=CARTESIAN_POINT('Origin',(0.,18.4,0.));
#562=CARTESIAN_POINT('',(23.,20.2,2.81668763803891E-15));
#563=CARTESIAN_POINT('Origin',(0.,18.4,0.));
#564=CARTESIAN_POINT('',(-2.76770176607301E-15,18.,22.5999999999999));
#565=CARTESIAN_POINT('Origin',(0.,18.,0.));
#566=CARTESIAN_POINT('Origin',(-2.76770176607301E-15,18.4,22.5999999999999));
#567=CARTESIAN_POINT('Origin',(-20.1500000000001,18.0000000000001,0.));
#568=CARTESIAN_POINT('',(-2.46766330028193E-15,18.0000000000001,20.1500000000001));
#569=CARTESIAN_POINT('Origin',(0.,18.0000000000001,0.));
#570=CARTESIAN_POINT('Origin',(0.,17.9,0.));
#571=CARTESIAN_POINT('',(-2.45541683229044E-15,17.9,20.05));
#572=CARTESIAN_POINT('Origin',(-2.46766330028193E-15,17.9,20.1500000000001));
#573=CARTESIAN_POINT('',(20.05,17.9,2.45541683229044E-15));
#574=CARTESIAN_POINT('Origin',(0.,17.9,0.));
#575=CARTESIAN_POINT('Origin',(0.,17.9,0.));
#576=CARTESIAN_POINT('Origin',(0.,10.1122715261266,0.));
#577=CARTESIAN_POINT('',(-2.45541683229044E-15,2.32454305225315,20.05));
#578=CARTESIAN_POINT('',(20.05,2.32454305225315,2.45541683229044E-15));
#579=CARTESIAN_POINT('Origin',(0.,2.32454305225315,0.));
#580=CARTESIAN_POINT('Origin',(0.,2.32454305225315,0.));
#581=CARTESIAN_POINT('',(20.05,10.1122715261266,2.45541683229044E-15));
#582=CARTESIAN_POINT('Origin',(0.,2.32454305225313,0.));
#583=CARTESIAN_POINT('',(-2.41652467151823E-15,1.93312676271967,19.732421406733));
#584=CARTESIAN_POINT('',(19.732421406733,1.93312676271967,2.41652467151823E-15));
#585=CARTESIAN_POINT('Origin',(0.,1.93312676271967,0.));
#586=CARTESIAN_POINT('Origin',(-2.40643096032454E-15,2.32454305225313,19.65));
#587=CARTESIAN_POINT('Origin',(0.,1.93312676271967,0.));
#588=CARTESIAN_POINT('Origin',(0.,0.971928200401408,0.));
#589=CARTESIAN_POINT('',(-1.29849627809684E-15,0.010729638083149,10.6030267584164));
#590=CARTESIAN_POINT('',(10.6030267584164,0.0107296380831488,1.29849627809684E-15));
#591=CARTESIAN_POINT('Origin',(0.,0.010729638083149,0.));
#592=CARTESIAN_POINT('Origin',(0.,0.010729638083149,0.));
#593=CARTESIAN_POINT('',(15.1677240825747,0.971928200401408,1.85751047480753E-15));
#594=CARTESIAN_POINT('Origin',(0.,0.499999999999996,0.));
#595=CARTESIAN_POINT('',(-1.24467054971811E-15,0.8698270016736,10.1635063316598));
#596=CARTESIAN_POINT('',(10.1635063316598,0.869827001673599,1.24467054971811E-15));
#597=CARTESIAN_POINT('Origin',(0.,0.8698270016736,0.));
#598=CARTESIAN_POINT('Origin',(-1.28587913910474E-15,0.499999999999996,
10.5000000000001));
#599=CARTESIAN_POINT('Origin',(0.,0.8698270016736,0.));
#600=CARTESIAN_POINT('Origin',(0.,4.28614435989236,0.));
#601=CARTESIAN_POINT('',(17.6729873366805,7.70246171811112,2.16431673732375E-15));
#602=CARTESIAN_POINT('',(13.9182468341702,4.28614435989236,1.70449364352093E-15));
#603=CARTESIAN_POINT('',(-2.16431673732375E-15,7.70246171811112,17.6729873366805));
#604=CARTESIAN_POINT('Origin',(0.,7.70246171811112,0.));
#605=CARTESIAN_POINT('Origin',(0.,7.70246171811112,0.));
#606=CARTESIAN_POINT('Origin',(0.,8.44211572145838,0.));
#607=CARTESIAN_POINT('Origin',(-2.0818995585505E-15,8.44211572145838,17.));
#608=UNCERTAINTY_MEASURE_WITH_UNIT(LENGTH_MEASURE(0.01),#612,
'DISTANCE_ACCURACY_VALUE',
'Maximum model space distance between geometric entities at asserted c
onnectivities');
#609=UNCERTAINTY_MEASURE_WITH_UNIT(LENGTH_MEASURE(0.01),#612,
'DISTANCE_ACCURACY_VALUE',
'Maximum model space distance between geometric entities at asserted c
onnectivities');
#610=(
GEOMETRIC_REPRESENTATION_CONTEXT(3)
GLOBAL_UNCERTAINTY_ASSIGNED_CONTEXT((#608))
GLOBAL_UNIT_ASSIGNED_CONTEXT((#612,#614,#615))
REPRESENTATION_CONTEXT('','3D')
);
#611=(
GEOMETRIC_REPRESENTATION_CONTEXT(3)
GLOBAL_UNCERTAINTY_ASSIGNED_CONTEXT((#609))
GLOBAL_UNIT_ASSIGNED_CONTEXT((#612,#614,#615))
REPRESENTATION_CONTEXT('','3D')
);
#612=(
LENGTH_UNIT()
NAMED_UNIT(*)
SI_UNIT(.MILLI.,.METRE.)
);
#613=(
LENGTH_UNIT()
NAMED_UNIT(*)
SI_UNIT(.CENTI.,.METRE.)
);
#614=(
NAMED_UNIT(*)
PLANE_ANGLE_UNIT()
SI_UNIT($,.RADIAN.)
);
#615=(
NAMED_UNIT(*)
SI_UNIT($,.STERADIAN.)
SOLID_ANGLE_UNIT()
);
#616=SHAPE_DEFINITION_REPRESENTATION(#617,#618);
#617=PRODUCT_DEFINITION_SHAPE('',$,#620);
#618=SHAPE_REPRESENTATION('',(#336),#610);
#619=PRODUCT_DEFINITION_CONTEXT('part definition',#624,'design');
#620=PRODUCT_DEFINITION('881200z','881200z',#621,#619);
#621=PRODUCT_DEFINITION_FORMATION('',$,#626);
#622=PRODUCT_RELATED_PRODUCT_CATEGORY('881200z','881200z',(#626));
#623=APPLICATION_PROTOCOL_DEFINITION('international standard',
'automotive_design',2009,#624);
#624=APPLICATION_CONTEXT(
'Core Data for Automotive Mechanical Design Process');
#625=PRODUCT_CONTEXT('part definition',#624,'mechanical');
#626=PRODUCT('881200z','881200z',$,(#625));
#627=PRESENTATION_STYLE_ASSIGNMENT((#628));
#628=SURFACE_STYLE_USAGE(.BOTH.,#631);
#629=SURFACE_STYLE_RENDERING_WITH_PROPERTIES($,#635,(#630));
#630=SURFACE_STYLE_TRANSPARENT(0.);
#631=SURFACE_SIDE_STYLE('',(#632,#629));
#632=SURFACE_STYLE_FILL_AREA(#633);
#633=FILL_AREA_STYLE('',(#634));
#634=FILL_AREA_STYLE_COLOUR('',#635);
#635=COLOUR_RGB('',0.749019607843137,0.749019607843137,0.749019607843137);
ENDSEC;
END-ISO-10303-21;
