ISO-10303-21;
HEADER;
/* Generated by software containing ST-Developer
 * from STEP Tools, Inc. (www.steptools.com) 
 */

FILE_DESCRIPTION(
/* description */ (''),
/* implementation_level */ '2;1');

FILE_NAME(
/* name */ '782095z.stp',
/* time_stamp */ '2023-11-08T11:46:06+01:00',
/* author */ ('corinna'),
/* organization */ (''),
/* preprocessor_version */ 'ST-DEVELOPER v20',
/* originating_system */ 'Autodesk Inventor 2024',
/* authorisation */ '');

FILE_SCHEMA (('AUTOMOTIVE_DESIGN { 1 0 10303 214 3 1 1 }'));
ENDSEC;

DATA;
#10=MECHANICAL_DESIGN_GEOMETRIC_PRESENTATION_REPRESENTATION('',(#13),#184);
#11=SHAPE_REPRESENTATION_RELATIONSHIP('SRR','None',#191,#12);
#12=ADVANCED_BREP_SHAPE_REPRESENTATION('',(#14),#183);
#13=STYLED_ITEM('',(#200),#14);
#14=MANIFOLD_SOLID_BREP('Volumenk\X\F6rper1',#93);
#15=CONICAL_SURFACE('',#121,312.320508075682,0.261799387799448);
#16=CONICAL_SURFACE('',#125,309.92050807569,0.469986721433087);
#17=FACE_BOUND('',#29,.T.);
#18=FACE_BOUND('',#34,.T.);
#19=PLANE('',#119);
#20=PLANE('',#127);
#21=FACE_OUTER_BOUND('',#27,.T.);
#22=FACE_OUTER_BOUND('',#28,.T.);
#23=FACE_OUTER_BOUND('',#30,.T.);
#24=FACE_OUTER_BOUND('',#31,.T.);
#25=FACE_OUTER_BOUND('',#32,.T.);
#26=FACE_OUTER_BOUND('',#33,.T.);
#27=EDGE_LOOP('',(#65,#66,#67,#68));
#28=EDGE_LOOP('',(#69));
#29=EDGE_LOOP('',(#70));
#30=EDGE_LOOP('',(#71,#72,#73,#74));
#31=EDGE_LOOP('',(#75,#76,#77,#78));
#32=EDGE_LOOP('',(#79,#80,#81,#82));
#33=EDGE_LOOP('',(#83));
#34=EDGE_LOOP('',(#84));
#35=LINE('',#163,#39);
#36=LINE('',#171,#40);
#37=LINE('',#175,#41);
#38=LINE('',#179,#42);
#39=VECTOR('',#134,290.899999999996);
#40=VECTOR('',#145,312.320508075682);
#41=VECTOR('',#150,314.999999999996);
#42=VECTOR('',#155,309.92050807569);
#43=CIRCLE('',#117,290.899999999996);
#44=CIRCLE('',#118,290.899999999997);
#45=CIRCLE('',#120,309.641016151367);
#46=CIRCLE('',#122,314.999999999996);
#47=CIRCLE('',#124,314.999999999996);
#48=CIRCLE('',#126,304.841016151384);
#49=VERTEX_POINT('',#160);
#50=VERTEX_POINT('',#162);
#51=VERTEX_POINT('',#166);
#52=VERTEX_POINT('',#169);
#53=VERTEX_POINT('',#173);
#54=VERTEX_POINT('',#177);
#55=EDGE_CURVE('',#49,#49,#43,.T.);
#56=EDGE_CURVE('',#49,#50,#35,.T.);
#57=EDGE_CURVE('',#50,#50,#44,.T.);
#58=EDGE_CURVE('',#51,#51,#45,.T.);
#59=EDGE_CURVE('',#52,#52,#46,.T.);
#60=EDGE_CURVE('',#52,#51,#36,.T.);
#61=EDGE_CURVE('',#53,#53,#47,.T.);
#62=EDGE_CURVE('',#53,#52,#37,.T.);
#63=EDGE_CURVE('',#54,#54,#48,.T.);
#64=EDGE_CURVE('',#54,#53,#38,.T.);
#65=ORIENTED_EDGE('',*,*,#55,.T.);
#66=ORIENTED_EDGE('',*,*,#56,.T.);
#67=ORIENTED_EDGE('',*,*,#57,.F.);
#68=ORIENTED_EDGE('',*,*,#56,.F.);
#69=ORIENTED_EDGE('',*,*,#58,.F.);
#70=ORIENTED_EDGE('',*,*,#57,.T.);
#71=ORIENTED_EDGE('',*,*,#59,.F.);
#72=ORIENTED_EDGE('',*,*,#60,.T.);
#73=ORIENTED_EDGE('',*,*,#58,.T.);
#74=ORIENTED_EDGE('',*,*,#60,.F.);
#75=ORIENTED_EDGE('',*,*,#61,.F.);
#76=ORIENTED_EDGE('',*,*,#62,.T.);
#77=ORIENTED_EDGE('',*,*,#59,.T.);
#78=ORIENTED_EDGE('',*,*,#62,.F.);
#79=ORIENTED_EDGE('',*,*,#63,.F.);
#80=ORIENTED_EDGE('',*,*,#64,.T.);
#81=ORIENTED_EDGE('',*,*,#61,.T.);
#82=ORIENTED_EDGE('',*,*,#64,.F.);
#83=ORIENTED_EDGE('',*,*,#63,.T.);
#84=ORIENTED_EDGE('',*,*,#55,.F.);
#85=CYLINDRICAL_SURFACE('',#116,290.899999999996);
#86=CYLINDRICAL_SURFACE('',#123,314.999999999996);
#87=ADVANCED_FACE('',(#21),#85,.F.);
#88=ADVANCED_FACE('',(#22,#17),#19,.T.);
#89=ADVANCED_FACE('',(#23),#15,.T.);
#90=ADVANCED_FACE('',(#24),#86,.T.);
#91=ADVANCED_FACE('',(#25),#16,.T.);
#92=ADVANCED_FACE('',(#26,#18),#20,.T.);
#93=CLOSED_SHELL('',(#87,#88,#89,#90,#91,#92));
#94=DERIVED_UNIT_ELEMENT(#97,1.);
#95=DERIVED_UNIT_ELEMENT(#186,-3.);
#96=DIMENSIONAL_EXPONENTS(0.,1.,0.,0.,0.,0.,0.);
#97=(
CONVERSION_BASED_UNIT('gram',#99)
MASS_UNIT()
NAMED_UNIT(#96)
);
#98=(
MASS_UNIT()
NAMED_UNIT(*)
SI_UNIT(.KILO.,.GRAM.)
);
#99=MASS_MEASURE_WITH_UNIT(MASS_MEASURE(0.001),#98);
#100=DERIVED_UNIT((#94,#95));
#101=MEASURE_REPRESENTATION_ITEM('density measure',
POSITIVE_RATIO_MEASURE(1.),#100);
#102=PROPERTY_DEFINITION_REPRESENTATION(#107,#104);
#103=PROPERTY_DEFINITION_REPRESENTATION(#108,#105);
#104=REPRESENTATION('material name',(#106),#183);
#105=REPRESENTATION('density',(#101),#183);
#106=DESCRIPTIVE_REPRESENTATION_ITEM('Generisch','Generisch');
#107=PROPERTY_DEFINITION('material property','material name',#193);
#108=PROPERTY_DEFINITION('material property','density of part',#193);
#109=DATE_TIME_ROLE('creation_date');
#110=APPLIED_DATE_AND_TIME_ASSIGNMENT(#111,#109,(#193));
#111=DATE_AND_TIME(#112,#113);
#112=CALENDAR_DATE(2023,8,11);
#113=LOCAL_TIME(0,0,0.,#114);
#114=COORDINATED_UNIVERSAL_TIME_OFFSET(0,0,.BEHIND.);
#115=AXIS2_PLACEMENT_3D('',#158,#128,#129);
#116=AXIS2_PLACEMENT_3D('',#159,#130,#131);
#117=AXIS2_PLACEMENT_3D('',#161,#132,#133);
#118=AXIS2_PLACEMENT_3D('',#164,#135,#136);
#119=AXIS2_PLACEMENT_3D('',#165,#137,#138);
#120=AXIS2_PLACEMENT_3D('',#167,#139,#140);
#121=AXIS2_PLACEMENT_3D('',#168,#141,#142);
#122=AXIS2_PLACEMENT_3D('',#170,#143,#144);
#123=AXIS2_PLACEMENT_3D('',#172,#146,#147);
#124=AXIS2_PLACEMENT_3D('',#174,#148,#149);
#125=AXIS2_PLACEMENT_3D('',#176,#151,#152);
#126=AXIS2_PLACEMENT_3D('',#178,#153,#154);
#127=AXIS2_PLACEMENT_3D('',#180,#156,#157);
#128=DIRECTION('axis',(0.,0.,1.));
#129=DIRECTION('refdir',(1.,0.,0.));
#130=DIRECTION('center_axis',(-2.44601601982792E-16,1.,0.));
#131=DIRECTION('ref_axis',(-1.,0.,0.));
#132=DIRECTION('center_axis',(-2.44601601982792E-16,1.,0.));
#133=DIRECTION('ref_axis',(1.,2.44601601982792E-16,0.));
#134=DIRECTION('',(2.44601601982792E-16,-1.,0.));
#135=DIRECTION('center_axis',(-2.44601601982792E-16,1.,0.));
#136=DIRECTION('ref_axis',(1.,2.44601601982792E-16,0.));
#137=DIRECTION('center_axis',(2.44601601982792E-16,-1.,0.));
#138=DIRECTION('ref_axis',(0.,0.,-1.));
#139=DIRECTION('center_axis',(-2.44601601982792E-16,1.,0.));
#140=DIRECTION('ref_axis',(1.,2.44601601982792E-16,0.));
#141=DIRECTION('center_axis',(-2.44601601982792E-16,1.,0.));
#142=DIRECTION('ref_axis',(-1.,0.,0.));
#143=DIRECTION('center_axis',(-2.44601601982792E-16,1.,0.));
#144=DIRECTION('ref_axis',(1.,2.44601601982792E-16,0.));
#145=DIRECTION('',(-0.258819045102809,-0.965925826288991,3.1696191514353E-17));
#146=DIRECTION('center_axis',(-2.44601601982792E-16,1.,0.));
#147=DIRECTION('ref_axis',(-1.,0.,0.));
#148=DIRECTION('center_axis',(-2.44601601982792E-16,1.,0.));
#149=DIRECTION('ref_axis',(1.,2.44601601982792E-16,0.));
#150=DIRECTION('',(2.44601601982792E-16,-1.,0.));
#151=DIRECTION('center_axis',(2.44601601982792E-16,-1.,0.));
#152=DIRECTION('ref_axis',(-1.,0.,0.));
#153=DIRECTION('center_axis',(-2.44601601982792E-16,1.,0.));
#154=DIRECTION('ref_axis',(1.,2.44601601982792E-16,0.));
#155=DIRECTION('',(0.45287444658997,-0.891574301797572,-5.54611241432036E-17));
#156=DIRECTION('center_axis',(-2.44601601982792E-16,1.,0.));
#157=DIRECTION('ref_axis',(0.,0.,1.));
#158=CARTESIAN_POINT('',(0.,0.,0.));
#159=CARTESIAN_POINT('Origin',(-3.28164398780612E-12,-2529.49880256215,
0.));
#160=CARTESIAN_POINT('',(290.899999999992,470.501197437851,-3.56249753871961E-14));
#161=CARTESIAN_POINT('Origin',(-4.0154487937545E-12,470.501197437851,0.));
#162=CARTESIAN_POINT('',(290.899999999994,-5529.49880256215,-3.56249753871961E-14));
#163=CARTESIAN_POINT('',(290.899999999993,-2529.49880256215,-3.56249753871961E-14));
#164=CARTESIAN_POINT('Origin',(-2.54783918185774E-12,-5529.49880256215,
0.));
#165=CARTESIAN_POINT('Origin',(-309.64101615137,-5529.49880256215,0.));
#166=CARTESIAN_POINT('',(309.641016151365,-5529.49880256215,-3.79200879314506E-14));
#167=CARTESIAN_POINT('Origin',(-2.54783918185774E-12,-5529.49880256215,
0.));
#168=CARTESIAN_POINT('Origin',(-2.55028519787757E-12,-5519.49880256215,
0.));
#169=CARTESIAN_POINT('',(314.999999999994,-5509.49880256215,-3.85763741731412E-14));
#170=CARTESIAN_POINT('Origin',(-2.5527312138974E-12,-5509.49880256215,0.));
#171=CARTESIAN_POINT('',(312.320508075679,-5519.49880256215,-3.82482310522959E-14));
#172=CARTESIAN_POINT('Origin',(-3.28164398780612E-12,-2529.49880256215,
0.));
#173=CARTESIAN_POINT('',(314.999999999992,450.501197437851,-3.85763741731412E-14));
#174=CARTESIAN_POINT('Origin',(-4.01055676171484E-12,450.501197437851,0.));
#175=CARTESIAN_POINT('',(314.999999999993,-2529.49880256215,-3.85763741731412E-14));
#176=CARTESIAN_POINT('Origin',(-4.01300277773467E-12,460.501197437851,0.));
#177=CARTESIAN_POINT('',(304.84101615138,470.501197437851,-3.73322574678619E-14));
#178=CARTESIAN_POINT('Origin',(-4.0154487937545E-12,470.501197437851,0.));
#179=CARTESIAN_POINT('',(309.920508075686,460.501197437851,-3.79543158205015E-14));
#180=CARTESIAN_POINT('Origin',(-290.9,470.501197437851,0.));
#181=UNCERTAINTY_MEASURE_WITH_UNIT(LENGTH_MEASURE(0.01),#185,
'DISTANCE_ACCURACY_VALUE',
'Maximum model space distance between geometric entities at asserted c
onnectivities');
#182=UNCERTAINTY_MEASURE_WITH_UNIT(LENGTH_MEASURE(0.01),#185,
'DISTANCE_ACCURACY_VALUE',
'Maximum model space distance between geometric entities at asserted c
onnectivities');
#183=(
GEOMETRIC_REPRESENTATION_CONTEXT(3)
GLOBAL_UNCERTAINTY_ASSIGNED_CONTEXT((#181))
GLOBAL_UNIT_ASSIGNED_CONTEXT((#185,#187,#188))
REPRESENTATION_CONTEXT('','3D')
);
#184=(
GEOMETRIC_REPRESENTATION_CONTEXT(3)
GLOBAL_UNCERTAINTY_ASSIGNED_CONTEXT((#182))
GLOBAL_UNIT_ASSIGNED_CONTEXT((#185,#187,#188))
REPRESENTATION_CONTEXT('','3D')
);
#185=(
LENGTH_UNIT()
NAMED_UNIT(*)
SI_UNIT(.MILLI.,.METRE.)
);
#186=(
LENGTH_UNIT()
NAMED_UNIT(*)
SI_UNIT(.CENTI.,.METRE.)
);
#187=(
NAMED_UNIT(*)
PLANE_ANGLE_UNIT()
SI_UNIT($,.RADIAN.)
);
#188=(
NAMED_UNIT(*)
SI_UNIT($,.STERADIAN.)
SOLID_ANGLE_UNIT()
);
#189=SHAPE_DEFINITION_REPRESENTATION(#190,#191);
#190=PRODUCT_DEFINITION_SHAPE('',$,#193);
#191=SHAPE_REPRESENTATION('',(#115),#183);
#192=PRODUCT_DEFINITION_CONTEXT('part definition',#197,'design');
#193=PRODUCT_DEFINITION('782095z','782095z',#194,#192);
#194=PRODUCT_DEFINITION_FORMATION('',$,#199);
#195=PRODUCT_RELATED_PRODUCT_CATEGORY('782095z','782095z',(#199));
#196=APPLICATION_PROTOCOL_DEFINITION('international standard',
'automotive_design',2009,#197);
#197=APPLICATION_CONTEXT(
'Core Data for Automotive Mechanical Design Process');
#198=PRODUCT_CONTEXT('part definition',#197,'mechanical');
#199=PRODUCT('782095z','782095z',$,(#198));
#200=PRESENTATION_STYLE_ASSIGNMENT((#201));
#201=SURFACE_STYLE_USAGE(.BOTH.,#204);
#202=SURFACE_STYLE_RENDERING_WITH_PROPERTIES($,#208,(#203));
#203=SURFACE_STYLE_TRANSPARENT(0.);
#204=SURFACE_SIDE_STYLE('',(#205,#202));
#205=SURFACE_STYLE_FILL_AREA(#206);
#206=FILL_AREA_STYLE('',(#207));
#207=FILL_AREA_STYLE_COLOUR('',#208);
#208=COLOUR_RGB('',0.749019607843137,0.749019607843137,0.749019607843137);
ENDSEC;
END-ISO-10303-21;
