ISO-10303-21;
HEADER;
/* Generated by software containing ST-Developer
 * from STEP Tools, Inc. (www.steptools.com) 
 */

FILE_DESCRIPTION(
/* description */ (''),
/* implementation_level */ '2;1');

FILE_NAME(
/* name */ 
'Y:\\ACad-Dateien\\Ostendorf\\KG2000\\Kundenzeichnung\\Standardzeichnu
ngen\\778520 KG2000UG Anschluss an Gussrohr DN_OD 160.stp',
/* time_stamp */ '2021-06-04T08:10:41+02:00',
/* author */ ('LWM'),
/* organization */ (''),
/* preprocessor_version */ 'ST-DEVELOPER v18',
/* originating_system */ 'Autodesk Inventor 2020',
/* authorisation */ '');

FILE_SCHEMA (('AUTOMOTIVE_DESIGN { 1 0 10303 214 3 1 1 }'));
ENDSEC;

DATA;
#10=MECHANICAL_DESIGN_GEOMETRIC_PRESENTATION_REPRESENTATION('',(#13),#543);
#11=SHAPE_REPRESENTATION_RELATIONSHIP('SRR','None',#550,#12);
#12=ADVANCED_BREP_SHAPE_REPRESENTATION('',(#14),#542);
#13=STYLED_ITEM('',(#559),#14);
#14=MANIFOLD_SOLID_BREP('Volumenk\X\F6rper1',#283);
#15=CYLINDRICAL_SURFACE('',#321,94.25);
#16=CYLINDRICAL_SURFACE('',#327,92.9);
#17=CYLINDRICAL_SURFACE('',#333,80.1);
#18=CYLINDRICAL_SURFACE('',#342,75.2);
#19=CYLINDRICAL_SURFACE('',#348,88.);
#20=FACE_BOUND('',#43,.T.);
#21=FACE_BOUND('',#52,.T.);
#22=PLANE('',#313);
#23=PLANE('',#339);
#24=TOROIDAL_SURFACE('',#309,90.0680913473741,0.599999999999916);
#25=TOROIDAL_SURFACE('',#316,93.65,0.599999999999969);
#26=FACE_OUTER_BOUND('',#40,.T.);
#27=FACE_OUTER_BOUND('',#41,.T.);
#28=FACE_OUTER_BOUND('',#42,.T.);
#29=FACE_OUTER_BOUND('',#44,.T.);
#30=FACE_OUTER_BOUND('',#45,.T.);
#31=FACE_OUTER_BOUND('',#46,.T.);
#32=FACE_OUTER_BOUND('',#47,.T.);
#33=FACE_OUTER_BOUND('',#48,.T.);
#34=FACE_OUTER_BOUND('',#49,.T.);
#35=FACE_OUTER_BOUND('',#50,.T.);
#36=FACE_OUTER_BOUND('',#51,.T.);
#37=FACE_OUTER_BOUND('',#53,.T.);
#38=FACE_OUTER_BOUND('',#54,.T.);
#39=FACE_OUTER_BOUND('',#55,.T.);
#40=EDGE_LOOP('',(#180,#181,#182,#183,#184,#185,#186));
#41=EDGE_LOOP('',(#187,#188,#189,#190,#191,#192,#193));
#42=EDGE_LOOP('',(#194,#195));
#43=EDGE_LOOP('',(#196,#197));
#44=EDGE_LOOP('',(#198,#199,#200,#201,#202,#203,#204));
#45=EDGE_LOOP('',(#205,#206,#207,#208,#209,#210,#211));
#46=EDGE_LOOP('',(#212,#213,#214,#215,#216,#217));
#47=EDGE_LOOP('',(#218,#219,#220,#221,#222,#223));
#48=EDGE_LOOP('',(#224,#225,#226,#227,#228,#229));
#49=EDGE_LOOP('',(#230,#231,#232,#233,#234,#235));
#50=EDGE_LOOP('',(#236,#237,#238,#239,#240,#241));
#51=EDGE_LOOP('',(#242,#243));
#52=EDGE_LOOP('',(#244,#245));
#53=EDGE_LOOP('',(#246,#247,#248,#249,#250,#251));
#54=EDGE_LOOP('',(#252,#253,#254,#255,#256,#257));
#55=EDGE_LOOP('',(#258,#259,#260,#261,#262,#263));
#56=LINE('',#459,#66);
#57=LINE('',#490,#67);
#58=LINE('',#496,#68);
#59=LINE('',#502,#69);
#60=LINE('',#508,#70);
#61=LINE('',#514,#71);
#62=LINE('',#520,#72);
#63=LINE('',#528,#73);
#64=LINE('',#534,#74);
#65=LINE('',#539,#75);
#66=VECTOR('',#355,88.7442679258004);
#67=VECTOR('',#394,94.25);
#68=VECTOR('',#401,93.575);
#69=VECTOR('',#408,92.9);
#70=VECTOR('',#415,86.5);
#71=VECTOR('',#422,80.1);
#72=VECTOR('',#429,79.1621778264911);
#73=VECTOR('',#438,75.2);
#74=VECTOR('',#445,81.6);
#75=VECTOR('',#452,88.);
#76=CIRCLE('',#304,88.);
#77=CIRCLE('',#305,89.4885358516007);
#78=CIRCLE('',#306,89.4885358516007);
#79=CIRCLE('',#307,89.4885358516007);
#80=CIRCLE('',#308,88.);
#81=CIRCLE('',#310,90.0680913473741);
#82=CIRCLE('',#311,90.0680913473741);
#83=CIRCLE('',#312,0.599999999999916);
#84=CIRCLE('',#314,93.65);
#85=CIRCLE('',#315,93.65);
#86=CIRCLE('',#317,94.25);
#87=CIRCLE('',#318,94.25);
#88=CIRCLE('',#319,94.25);
#89=CIRCLE('',#320,0.599999999999969);
#90=CIRCLE('',#322,94.25);
#91=CIRCLE('',#323,94.25);
#92=CIRCLE('',#325,92.9);
#93=CIRCLE('',#326,92.9);
#94=CIRCLE('',#328,92.9);
#95=CIRCLE('',#329,92.9);
#96=CIRCLE('',#331,80.1);
#97=CIRCLE('',#332,80.1);
#98=CIRCLE('',#334,80.1);
#99=CIRCLE('',#335,80.1);
#100=CIRCLE('',#337,78.2243556529821);
#101=CIRCLE('',#338,78.2243556529821);
#102=CIRCLE('',#340,75.2);
#103=CIRCLE('',#341,75.2);
#104=CIRCLE('',#343,75.2);
#105=CIRCLE('',#344,75.2);
#106=CIRCLE('',#346,88.);
#107=CIRCLE('',#347,88.);
#108=VERTEX_POINT('',#455);
#109=VERTEX_POINT('',#456);
#110=VERTEX_POINT('',#458);
#111=VERTEX_POINT('',#460);
#112=VERTEX_POINT('',#462);
#113=VERTEX_POINT('',#467);
#114=VERTEX_POINT('',#468);
#115=VERTEX_POINT('',#473);
#116=VERTEX_POINT('',#474);
#117=VERTEX_POINT('',#478);
#118=VERTEX_POINT('',#479);
#119=VERTEX_POINT('',#481);
#120=VERTEX_POINT('',#486);
#121=VERTEX_POINT('',#487);
#122=VERTEX_POINT('',#492);
#123=VERTEX_POINT('',#493);
#124=VERTEX_POINT('',#498);
#125=VERTEX_POINT('',#499);
#126=VERTEX_POINT('',#504);
#127=VERTEX_POINT('',#505);
#128=VERTEX_POINT('',#510);
#129=VERTEX_POINT('',#511);
#130=VERTEX_POINT('',#516);
#131=VERTEX_POINT('',#517);
#132=VERTEX_POINT('',#522);
#133=VERTEX_POINT('',#523);
#134=VERTEX_POINT('',#527);
#135=VERTEX_POINT('',#529);
#136=VERTEX_POINT('',#533);
#137=VERTEX_POINT('',#535);
#138=EDGE_CURVE('',#108,#109,#76,.T.);
#139=EDGE_CURVE('',#109,#110,#56,.T.);
#140=EDGE_CURVE('',#111,#110,#77,.T.);
#141=EDGE_CURVE('',#112,#111,#78,.T.);
#142=EDGE_CURVE('',#110,#112,#79,.T.);
#143=EDGE_CURVE('',#109,#108,#80,.T.);
#144=EDGE_CURVE('',#113,#114,#81,.T.);
#145=EDGE_CURVE('',#114,#113,#82,.T.);
#146=EDGE_CURVE('',#114,#111,#83,.T.);
#147=EDGE_CURVE('',#115,#116,#84,.T.);
#148=EDGE_CURVE('',#116,#115,#85,.T.);
#149=EDGE_CURVE('',#117,#118,#86,.T.);
#150=EDGE_CURVE('',#119,#117,#87,.T.);
#151=EDGE_CURVE('',#118,#119,#88,.T.);
#152=EDGE_CURVE('',#118,#116,#89,.T.);
#153=EDGE_CURVE('',#120,#121,#90,.T.);
#154=EDGE_CURVE('',#121,#120,#91,.T.);
#155=EDGE_CURVE('',#121,#119,#57,.T.);
#156=EDGE_CURVE('',#122,#123,#92,.T.);
#157=EDGE_CURVE('',#123,#122,#93,.T.);
#158=EDGE_CURVE('',#123,#121,#58,.T.);
#159=EDGE_CURVE('',#124,#125,#94,.T.);
#160=EDGE_CURVE('',#125,#124,#95,.T.);
#161=EDGE_CURVE('',#125,#123,#59,.T.);
#162=EDGE_CURVE('',#126,#127,#96,.T.);
#163=EDGE_CURVE('',#127,#126,#97,.T.);
#164=EDGE_CURVE('',#127,#125,#60,.T.);
#165=EDGE_CURVE('',#128,#129,#98,.T.);
#166=EDGE_CURVE('',#129,#128,#99,.T.);
#167=EDGE_CURVE('',#129,#127,#61,.T.);
#168=EDGE_CURVE('',#130,#131,#100,.T.);
#169=EDGE_CURVE('',#131,#130,#101,.T.);
#170=EDGE_CURVE('',#131,#129,#62,.T.);
#171=EDGE_CURVE('',#132,#133,#102,.T.);
#172=EDGE_CURVE('',#133,#132,#103,.T.);
#173=EDGE_CURVE('',#133,#134,#63,.T.);
#174=EDGE_CURVE('',#135,#134,#104,.T.);
#175=EDGE_CURVE('',#134,#135,#105,.T.);
#176=EDGE_CURVE('',#134,#136,#64,.T.);
#177=EDGE_CURVE('',#137,#136,#106,.T.);
#178=EDGE_CURVE('',#136,#137,#107,.T.);
#179=EDGE_CURVE('',#136,#109,#65,.T.);
#180=ORIENTED_EDGE('',*,*,#138,.T.);
#181=ORIENTED_EDGE('',*,*,#139,.T.);
#182=ORIENTED_EDGE('',*,*,#140,.F.);
#183=ORIENTED_EDGE('',*,*,#141,.F.);
#184=ORIENTED_EDGE('',*,*,#142,.F.);
#185=ORIENTED_EDGE('',*,*,#139,.F.);
#186=ORIENTED_EDGE('',*,*,#143,.T.);
#187=ORIENTED_EDGE('',*,*,#144,.F.);
#188=ORIENTED_EDGE('',*,*,#145,.F.);
#189=ORIENTED_EDGE('',*,*,#146,.T.);
#190=ORIENTED_EDGE('',*,*,#140,.T.);
#191=ORIENTED_EDGE('',*,*,#142,.T.);
#192=ORIENTED_EDGE('',*,*,#141,.T.);
#193=ORIENTED_EDGE('',*,*,#146,.F.);
#194=ORIENTED_EDGE('',*,*,#147,.F.);
#195=ORIENTED_EDGE('',*,*,#148,.F.);
#196=ORIENTED_EDGE('',*,*,#144,.T.);
#197=ORIENTED_EDGE('',*,*,#145,.T.);
#198=ORIENTED_EDGE('',*,*,#149,.F.);
#199=ORIENTED_EDGE('',*,*,#150,.F.);
#200=ORIENTED_EDGE('',*,*,#151,.F.);
#201=ORIENTED_EDGE('',*,*,#152,.T.);
#202=ORIENTED_EDGE('',*,*,#148,.T.);
#203=ORIENTED_EDGE('',*,*,#147,.T.);
#204=ORIENTED_EDGE('',*,*,#152,.F.);
#205=ORIENTED_EDGE('',*,*,#153,.F.);
#206=ORIENTED_EDGE('',*,*,#154,.F.);
#207=ORIENTED_EDGE('',*,*,#155,.T.);
#208=ORIENTED_EDGE('',*,*,#150,.T.);
#209=ORIENTED_EDGE('',*,*,#149,.T.);
#210=ORIENTED_EDGE('',*,*,#151,.T.);
#211=ORIENTED_EDGE('',*,*,#155,.F.);
#212=ORIENTED_EDGE('',*,*,#156,.F.);
#213=ORIENTED_EDGE('',*,*,#157,.F.);
#214=ORIENTED_EDGE('',*,*,#158,.T.);
#215=ORIENTED_EDGE('',*,*,#154,.T.);
#216=ORIENTED_EDGE('',*,*,#153,.T.);
#217=ORIENTED_EDGE('',*,*,#158,.F.);
#218=ORIENTED_EDGE('',*,*,#159,.F.);
#219=ORIENTED_EDGE('',*,*,#160,.F.);
#220=ORIENTED_EDGE('',*,*,#161,.T.);
#221=ORIENTED_EDGE('',*,*,#157,.T.);
#222=ORIENTED_EDGE('',*,*,#156,.T.);
#223=ORIENTED_EDGE('',*,*,#161,.F.);
#224=ORIENTED_EDGE('',*,*,#162,.F.);
#225=ORIENTED_EDGE('',*,*,#163,.F.);
#226=ORIENTED_EDGE('',*,*,#164,.T.);
#227=ORIENTED_EDGE('',*,*,#160,.T.);
#228=ORIENTED_EDGE('',*,*,#159,.T.);
#229=ORIENTED_EDGE('',*,*,#164,.F.);
#230=ORIENTED_EDGE('',*,*,#165,.F.);
#231=ORIENTED_EDGE('',*,*,#166,.F.);
#232=ORIENTED_EDGE('',*,*,#167,.T.);
#233=ORIENTED_EDGE('',*,*,#163,.T.);
#234=ORIENTED_EDGE('',*,*,#162,.T.);
#235=ORIENTED_EDGE('',*,*,#167,.F.);
#236=ORIENTED_EDGE('',*,*,#168,.F.);
#237=ORIENTED_EDGE('',*,*,#169,.F.);
#238=ORIENTED_EDGE('',*,*,#170,.T.);
#239=ORIENTED_EDGE('',*,*,#166,.T.);
#240=ORIENTED_EDGE('',*,*,#165,.T.);
#241=ORIENTED_EDGE('',*,*,#170,.F.);
#242=ORIENTED_EDGE('',*,*,#168,.T.);
#243=ORIENTED_EDGE('',*,*,#169,.T.);
#244=ORIENTED_EDGE('',*,*,#171,.F.);
#245=ORIENTED_EDGE('',*,*,#172,.F.);
#246=ORIENTED_EDGE('',*,*,#171,.T.);
#247=ORIENTED_EDGE('',*,*,#173,.T.);
#248=ORIENTED_EDGE('',*,*,#174,.F.);
#249=ORIENTED_EDGE('',*,*,#175,.F.);
#250=ORIENTED_EDGE('',*,*,#173,.F.);
#251=ORIENTED_EDGE('',*,*,#172,.T.);
#252=ORIENTED_EDGE('',*,*,#174,.T.);
#253=ORIENTED_EDGE('',*,*,#176,.T.);
#254=ORIENTED_EDGE('',*,*,#177,.F.);
#255=ORIENTED_EDGE('',*,*,#178,.F.);
#256=ORIENTED_EDGE('',*,*,#176,.F.);
#257=ORIENTED_EDGE('',*,*,#175,.T.);
#258=ORIENTED_EDGE('',*,*,#177,.T.);
#259=ORIENTED_EDGE('',*,*,#179,.T.);
#260=ORIENTED_EDGE('',*,*,#138,.F.);
#261=ORIENTED_EDGE('',*,*,#143,.F.);
#262=ORIENTED_EDGE('',*,*,#179,.F.);
#263=ORIENTED_EDGE('',*,*,#178,.T.);
#264=CONICAL_SURFACE('',#303,88.7442679258004,0.261799387799149);
#265=CONICAL_SURFACE('',#324,93.575,0.261799387799147);
#266=CONICAL_SURFACE('',#330,86.5,0.777967634759387);
#267=CONICAL_SURFACE('',#336,79.1621778264911,0.261799387799151);
#268=CONICAL_SURFACE('',#345,81.6,0.777967634759385);
#269=ADVANCED_FACE('',(#26),#264,.F.);
#270=ADVANCED_FACE('',(#27),#24,.T.);
#271=ADVANCED_FACE('',(#28,#20),#22,.T.);
#272=ADVANCED_FACE('',(#29),#25,.T.);
#273=ADVANCED_FACE('',(#30),#15,.T.);
#274=ADVANCED_FACE('',(#31),#265,.T.);
#275=ADVANCED_FACE('',(#32),#16,.T.);
#276=ADVANCED_FACE('',(#33),#266,.T.);
#277=ADVANCED_FACE('',(#34),#17,.T.);
#278=ADVANCED_FACE('',(#35),#267,.T.);
#279=ADVANCED_FACE('',(#36,#21),#23,.T.);
#280=ADVANCED_FACE('',(#37),#18,.F.);
#281=ADVANCED_FACE('',(#38),#268,.F.);
#282=ADVANCED_FACE('',(#39),#19,.F.);
#283=CLOSED_SHELL('',(#269,#270,#271,#272,#273,#274,#275,#276,#277,#278,
#279,#280,#281,#282));
#284=DERIVED_UNIT_ELEMENT(#286,1.);
#285=DERIVED_UNIT_ELEMENT(#545,3.);
#286=(
MASS_UNIT()
NAMED_UNIT(*)
SI_UNIT($,.GRAM.)
);
#287=DERIVED_UNIT((#284,#285));
#288=MEASURE_REPRESENTATION_ITEM('density measure',
POSITIVE_RATIO_MEASURE(1.),#287);
#289=PROPERTY_DEFINITION_REPRESENTATION(#294,#291);
#290=PROPERTY_DEFINITION_REPRESENTATION(#295,#292);
#291=REPRESENTATION('material name',(#293),#542);
#292=REPRESENTATION('density',(#288),#542);
#293=DESCRIPTIVE_REPRESENTATION_ITEM('Generisch','Generisch');
#294=PROPERTY_DEFINITION('material property','material name',#552);
#295=PROPERTY_DEFINITION('material property','density of part',#552);
#296=DATE_TIME_ROLE('creation_date');
#297=APPLIED_DATE_AND_TIME_ASSIGNMENT(#298,#296,(#552));
#298=DATE_AND_TIME(#299,#300);
#299=CALENDAR_DATE(2021,11,5);
#300=LOCAL_TIME(9,11,59.,#301);
#301=COORDINATED_UNIVERSAL_TIME_OFFSET(0,0,.BEHIND.);
#302=AXIS2_PLACEMENT_3D('placement',#453,#349,#350);
#303=AXIS2_PLACEMENT_3D('',#454,#351,#352);
#304=AXIS2_PLACEMENT_3D('',#457,#353,#354);
#305=AXIS2_PLACEMENT_3D('',#461,#356,#357);
#306=AXIS2_PLACEMENT_3D('',#463,#358,#359);
#307=AXIS2_PLACEMENT_3D('',#464,#360,#361);
#308=AXIS2_PLACEMENT_3D('',#465,#362,#363);
#309=AXIS2_PLACEMENT_3D('',#466,#364,#365);
#310=AXIS2_PLACEMENT_3D('',#469,#366,#367);
#311=AXIS2_PLACEMENT_3D('',#470,#368,#369);
#312=AXIS2_PLACEMENT_3D('',#471,#370,#371);
#313=AXIS2_PLACEMENT_3D('',#472,#372,#373);
#314=AXIS2_PLACEMENT_3D('',#475,#374,#375);
#315=AXIS2_PLACEMENT_3D('',#476,#376,#377);
#316=AXIS2_PLACEMENT_3D('',#477,#378,#379);
#317=AXIS2_PLACEMENT_3D('',#480,#380,#381);
#318=AXIS2_PLACEMENT_3D('',#482,#382,#383);
#319=AXIS2_PLACEMENT_3D('',#483,#384,#385);
#320=AXIS2_PLACEMENT_3D('',#484,#386,#387);
#321=AXIS2_PLACEMENT_3D('',#485,#388,#389);
#322=AXIS2_PLACEMENT_3D('',#488,#390,#391);
#323=AXIS2_PLACEMENT_3D('',#489,#392,#393);
#324=AXIS2_PLACEMENT_3D('',#491,#395,#396);
#325=AXIS2_PLACEMENT_3D('',#494,#397,#398);
#326=AXIS2_PLACEMENT_3D('',#495,#399,#400);
#327=AXIS2_PLACEMENT_3D('',#497,#402,#403);
#328=AXIS2_PLACEMENT_3D('',#500,#404,#405);
#329=AXIS2_PLACEMENT_3D('',#501,#406,#407);
#330=AXIS2_PLACEMENT_3D('',#503,#409,#410);
#331=AXIS2_PLACEMENT_3D('',#506,#411,#412);
#332=AXIS2_PLACEMENT_3D('',#507,#413,#414);
#333=AXIS2_PLACEMENT_3D('',#509,#416,#417);
#334=AXIS2_PLACEMENT_3D('',#512,#418,#419);
#335=AXIS2_PLACEMENT_3D('',#513,#420,#421);
#336=AXIS2_PLACEMENT_3D('',#515,#423,#424);
#337=AXIS2_PLACEMENT_3D('',#518,#425,#426);
#338=AXIS2_PLACEMENT_3D('',#519,#427,#428);
#339=AXIS2_PLACEMENT_3D('',#521,#430,#431);
#340=AXIS2_PLACEMENT_3D('',#524,#432,#433);
#341=AXIS2_PLACEMENT_3D('',#525,#434,#435);
#342=AXIS2_PLACEMENT_3D('',#526,#436,#437);
#343=AXIS2_PLACEMENT_3D('',#530,#439,#440);
#344=AXIS2_PLACEMENT_3D('',#531,#441,#442);
#345=AXIS2_PLACEMENT_3D('',#532,#443,#444);
#346=AXIS2_PLACEMENT_3D('',#536,#446,#447);
#347=AXIS2_PLACEMENT_3D('',#537,#448,#449);
#348=AXIS2_PLACEMENT_3D('',#538,#450,#451);
#349=DIRECTION('axis',(0.,0.,1.));
#350=DIRECTION('refdir',(1.,0.,0.));
#351=DIRECTION('center_axis',(0.,1.,0.));
#352=DIRECTION('ref_axis',(1.,0.,0.));
#353=DIRECTION('center_axis',(0.,-1.,0.));
#354=DIRECTION('ref_axis',(1.,0.,0.));
#355=DIRECTION('',(-0.25881904510252,0.965925826289069,-3.16961915143175E-17));
#356=DIRECTION('center_axis',(0.,-1.,0.));
#357=DIRECTION('ref_axis',(1.,0.,0.));
#358=DIRECTION('center_axis',(0.,-1.,0.));
#359=DIRECTION('ref_axis',(1.,0.,0.));
#360=DIRECTION('center_axis',(0.,-1.,0.));
#361=DIRECTION('ref_axis',(1.,0.,0.));
#362=DIRECTION('center_axis',(0.,-1.,0.));
#363=DIRECTION('ref_axis',(1.,0.,0.));
#364=DIRECTION('center_axis',(0.,-1.,0.));
#365=DIRECTION('ref_axis',(0.,0.,-1.));
#366=DIRECTION('center_axis',(0.,-1.,0.));
#367=DIRECTION('ref_axis',(1.,0.,0.));
#368=DIRECTION('center_axis',(0.,-1.,0.));
#369=DIRECTION('ref_axis',(1.,0.,0.));
#370=DIRECTION('center_axis',(-1.,0.,-1.22464679914735E-16));
#371=DIRECTION('ref_axis',(-1.22464679914735E-16,0.,1.));
#372=DIRECTION('center_axis',(0.,1.,0.));
#373=DIRECTION('ref_axis',(0.,0.,1.));
#374=DIRECTION('center_axis',(0.,-1.,0.));
#375=DIRECTION('ref_axis',(1.,0.,0.));
#376=DIRECTION('center_axis',(0.,-1.,0.));
#377=DIRECTION('ref_axis',(1.,0.,0.));
#378=DIRECTION('center_axis',(0.,-1.,0.));
#379=DIRECTION('ref_axis',(0.,0.,-1.));
#380=DIRECTION('center_axis',(0.,-1.,0.));
#381=DIRECTION('ref_axis',(1.,0.,0.));
#382=DIRECTION('center_axis',(0.,-1.,0.));
#383=DIRECTION('ref_axis',(1.,0.,0.));
#384=DIRECTION('center_axis',(0.,-1.,0.));
#385=DIRECTION('ref_axis',(1.,0.,0.));
#386=DIRECTION('center_axis',(-1.,0.,-1.22464679914735E-16));
#387=DIRECTION('ref_axis',(-1.22464679914735E-16,0.,1.));
#388=DIRECTION('center_axis',(0.,-1.,0.));
#389=DIRECTION('ref_axis',(1.,0.,0.));
#390=DIRECTION('center_axis',(0.,-1.,0.));
#391=DIRECTION('ref_axis',(1.,0.,0.));
#392=DIRECTION('center_axis',(0.,-1.,0.));
#393=DIRECTION('ref_axis',(1.,0.,0.));
#394=DIRECTION('',(0.,1.,0.));
#395=DIRECTION('center_axis',(0.,1.,0.));
#396=DIRECTION('ref_axis',(1.,0.,0.));
#397=DIRECTION('center_axis',(0.,-1.,0.));
#398=DIRECTION('ref_axis',(1.,0.,0.));
#399=DIRECTION('center_axis',(0.,-1.,0.));
#400=DIRECTION('ref_axis',(1.,0.,0.));
#401=DIRECTION('',(-0.258819045102518,0.965925826289069,-3.16961915143173E-17));
#402=DIRECTION('center_axis',(0.,-1.,0.));
#403=DIRECTION('ref_axis',(1.,0.,0.));
#404=DIRECTION('center_axis',(0.,-1.,0.));
#405=DIRECTION('ref_axis',(1.,0.,0.));
#406=DIRECTION('center_axis',(0.,-1.,0.));
#407=DIRECTION('ref_axis',(1.,0.,0.));
#408=DIRECTION('',(0.,1.,0.));
#409=DIRECTION('center_axis',(0.,1.,0.));
#410=DIRECTION('ref_axis',(1.,0.,0.));
#411=DIRECTION('center_axis',(0.,-1.,0.));
#412=DIRECTION('ref_axis',(1.,0.,0.));
#413=DIRECTION('center_axis',(0.,-1.,0.));
#414=DIRECTION('ref_axis',(1.,0.,0.));
#415=DIRECTION('',(-0.701833131781025,0.712341389457638,-8.59497698371194E-17));
#416=DIRECTION('center_axis',(0.,-1.,0.));
#417=DIRECTION('ref_axis',(1.,0.,0.));
#418=DIRECTION('center_axis',(0.,-1.,0.));
#419=DIRECTION('ref_axis',(1.,0.,0.));
#420=DIRECTION('center_axis',(0.,-1.,0.));
#421=DIRECTION('ref_axis',(1.,0.,0.));
#422=DIRECTION('',(0.,1.,0.));
#423=DIRECTION('center_axis',(0.,1.,0.));
#424=DIRECTION('ref_axis',(1.,0.,0.));
#425=DIRECTION('center_axis',(0.,-1.,0.));
#426=DIRECTION('ref_axis',(1.,0.,0.));
#427=DIRECTION('center_axis',(0.,-1.,0.));
#428=DIRECTION('ref_axis',(1.,0.,0.));
#429=DIRECTION('',(-0.258819045102522,0.965925826289068,-3.16961915143178E-17));
#430=DIRECTION('center_axis',(0.,-1.,0.));
#431=DIRECTION('ref_axis',(0.,0.,-1.));
#432=DIRECTION('center_axis',(0.,-1.,0.));
#433=DIRECTION('ref_axis',(1.,0.,0.));
#434=DIRECTION('center_axis',(0.,-1.,0.));
#435=DIRECTION('ref_axis',(1.,0.,0.));
#436=DIRECTION('center_axis',(0.,-1.,0.));
#437=DIRECTION('ref_axis',(1.,0.,0.));
#438=DIRECTION('',(0.,1.,0.));
#439=DIRECTION('center_axis',(0.,-1.,0.));
#440=DIRECTION('ref_axis',(1.,0.,0.));
#441=DIRECTION('center_axis',(0.,-1.,0.));
#442=DIRECTION('ref_axis',(1.,0.,0.));
#443=DIRECTION('center_axis',(0.,1.,0.));
#444=DIRECTION('ref_axis',(1.,0.,0.));
#445=DIRECTION('',(-0.701833131781023,0.71234138945764,-8.59497698371193E-17));
#446=DIRECTION('center_axis',(0.,-1.,0.));
#447=DIRECTION('ref_axis',(1.,0.,0.));
#448=DIRECTION('center_axis',(0.,-1.,0.));
#449=DIRECTION('ref_axis',(1.,0.,0.));
#450=DIRECTION('center_axis',(0.,-1.,0.));
#451=DIRECTION('ref_axis',(1.,0.,0.));
#452=DIRECTION('',(0.,1.,0.));
#453=CARTESIAN_POINT('',(0.,0.,0.));
#454=CARTESIAN_POINT('Origin',(0.,182.777645713531,0.));
#455=CARTESIAN_POINT('',(88.,180.,0.));
#456=CARTESIAN_POINT('',(-88.,180.,-1.07768918324967E-14));
#457=CARTESIAN_POINT('Origin',(0.,180.,0.));
#458=CARTESIAN_POINT('',(-89.4885358516007,185.555291427062,-1.09591848991046E-14));
#459=CARTESIAN_POINT('',(-88.7442679258004,182.777645713531,-1.08680383658007E-14));
#460=CARTESIAN_POINT('',(-1.09591848991046E-14,185.555291427062,89.4885358516007));
#461=CARTESIAN_POINT('Origin',(0.,185.555291427062,0.));
#462=CARTESIAN_POINT('',(89.4885358516007,185.555291427062,0.));
#463=CARTESIAN_POINT('Origin',(0.,185.555291427062,0.));
#464=CARTESIAN_POINT('Origin',(0.,185.555291427062,0.));
#465=CARTESIAN_POINT('Origin',(0.,180.,0.));
#466=CARTESIAN_POINT('Origin',(0.,185.4,0.));
#467=CARTESIAN_POINT('',(90.0680913473741,186.,0.));
#468=CARTESIAN_POINT('',(-1.10301599773873E-14,186.,90.0680913473741));
#469=CARTESIAN_POINT('Origin',(0.,186.,0.));
#470=CARTESIAN_POINT('Origin',(0.,186.,0.));
#471=CARTESIAN_POINT('Origin',(-1.10301599773873E-14,185.4,90.0680913473741));
#472=CARTESIAN_POINT('Origin',(93.65,186.,0.));
#473=CARTESIAN_POINT('',(93.65,186.,0.));
#474=CARTESIAN_POINT('',(-1.1468817274015E-14,186.,93.65));
#475=CARTESIAN_POINT('Origin',(0.,186.,0.));
#476=CARTESIAN_POINT('Origin',(0.,186.,0.));
#477=CARTESIAN_POINT('Origin',(0.,185.4,0.));
#478=CARTESIAN_POINT('',(94.25,185.4,0.));
#479=CARTESIAN_POINT('',(-1.15422960819638E-14,185.4,94.25));
#480=CARTESIAN_POINT('Origin',(0.,185.4,0.));
#481=CARTESIAN_POINT('',(-94.25,185.4,-1.15422960819638E-14));
#482=CARTESIAN_POINT('Origin',(0.,185.4,0.));
#483=CARTESIAN_POINT('Origin',(0.,185.4,0.));
#484=CARTESIAN_POINT('Origin',(-1.1468817274015E-14,185.4,93.65));
#485=CARTESIAN_POINT('Origin',(0.,184.89658567602,0.));
#486=CARTESIAN_POINT('',(94.25,184.39317135204,0.));
#487=CARTESIAN_POINT('',(-94.25,184.39317135204,-1.15422960819638E-14));
#488=CARTESIAN_POINT('Origin',(0.,184.39317135204,0.));
#489=CARTESIAN_POINT('Origin',(0.,184.39317135204,0.));
#490=CARTESIAN_POINT('',(-94.25,184.89658567602,-1.15422960819638E-14));
#491=CARTESIAN_POINT('Origin',(0.,181.874037056931,0.));
#492=CARTESIAN_POINT('',(92.9,179.354902761822,0.));
#493=CARTESIAN_POINT('',(-92.9,179.354902761822,-1.13769687640789E-14));
#494=CARTESIAN_POINT('Origin',(0.,179.354902761822,0.));
#495=CARTESIAN_POINT('Origin',(0.,179.354902761822,0.));
#496=CARTESIAN_POINT('',(-93.575,181.874037056931,-1.14596324230214E-14));
#497=CARTESIAN_POINT('Origin',(0.,138.673275938181,0.));
#498=CARTESIAN_POINT('',(92.9,97.99164911454,0.));
#499=CARTESIAN_POINT('',(-92.9,97.99164911454,-1.13769687640789E-14));
#500=CARTESIAN_POINT('Origin',(0.,97.99164911454,0.));
#501=CARTESIAN_POINT('Origin',(0.,97.99164911454,0.));
#502=CARTESIAN_POINT('',(-92.9,138.673275938181,-1.13769687640789E-14));
#503=CARTESIAN_POINT('Origin',(0.,91.49582455727,0.));
#504=CARTESIAN_POINT('',(80.1,85.,0.));
#505=CARTESIAN_POINT('',(-80.1,85.,-9.8094208611703E-15));
#506=CARTESIAN_POINT('Origin',(0.,85.,0.));
#507=CARTESIAN_POINT('Origin',(0.,85.,0.));
#508=CARTESIAN_POINT('',(-86.5,91.49582455727,-1.05931948126246E-14));
#509=CARTESIAN_POINT('Origin',(0.,46.,0.));
#510=CARTESIAN_POINT('',(80.1,7.00000000000001,0.));
#511=CARTESIAN_POINT('',(-80.1,7.00000000000001,-9.8094208611703E-15));
#512=CARTESIAN_POINT('Origin',(0.,7.00000000000001,0.));
#513=CARTESIAN_POINT('Origin',(0.,7.00000000000001,0.));
#514=CARTESIAN_POINT('',(-80.1,46.,-9.8094208611703E-15));
#515=CARTESIAN_POINT('Origin',(0.,3.50000000000001,0.));
#516=CARTESIAN_POINT('',(78.2243556529821,1.49880108324396E-14,0.));
#517=CARTESIAN_POINT('',(-78.2243556529821,1.88737914186277E-14,-9.57972067657887E-15));
#518=CARTESIAN_POINT('Origin',(0.,1.77635683940025E-14,0.));
#519=CARTESIAN_POINT('Origin',(0.,1.77635683940025E-14,0.));
#520=CARTESIAN_POINT('',(-79.1621778264911,3.50000000000001,-9.69457076887459E-15));
#521=CARTESIAN_POINT('Origin',(75.2,1.38140158943821E-14,0.));
#522=CARTESIAN_POINT('',(75.2,1.38140158943821E-14,0.));
#523=CARTESIAN_POINT('',(-75.2,1.77635683940025E-14,-9.2093439295881E-15));
#524=CARTESIAN_POINT('Origin',(0.,1.77635683940025E-14,0.));
#525=CARTESIAN_POINT('Origin',(0.,1.77635683940025E-14,0.));
#526=CARTESIAN_POINT('Origin',(0.,43.50417544273,0.));
#527=CARTESIAN_POINT('',(-75.2,87.00835088546,-9.2093439295881E-15));
#528=CARTESIAN_POINT('',(-75.2,43.50417544273,-9.2093439295881E-15));
#529=CARTESIAN_POINT('',(75.2,87.00835088546,0.));
#530=CARTESIAN_POINT('Origin',(0.,87.00835088546,0.));
#531=CARTESIAN_POINT('Origin',(0.,87.00835088546,0.));
#532=CARTESIAN_POINT('Origin',(0.,93.50417544273,0.));
#533=CARTESIAN_POINT('',(-88.,100.,-1.07768918324967E-14));
#534=CARTESIAN_POINT('',(-81.6,93.50417544273,-9.9931178810424E-15));
#535=CARTESIAN_POINT('',(88.,100.,0.));
#536=CARTESIAN_POINT('Origin',(0.,100.,0.));
#537=CARTESIAN_POINT('Origin',(0.,100.,0.));
#538=CARTESIAN_POINT('Origin',(0.,140.,0.));
#539=CARTESIAN_POINT('',(-88.,140.,-1.07768918324967E-14));
#540=UNCERTAINTY_MEASURE_WITH_UNIT(LENGTH_MEASURE(0.01),#544,
'DISTANCE_ACCURACY_VALUE',
'Maximum model space distance between geometric entities at asserted c
onnectivities');
#541=UNCERTAINTY_MEASURE_WITH_UNIT(LENGTH_MEASURE(0.01),#544,
'DISTANCE_ACCURACY_VALUE',
'Maximum model space distance between geometric entities at asserted c
onnectivities');
#542=(
GEOMETRIC_REPRESENTATION_CONTEXT(3)
GLOBAL_UNCERTAINTY_ASSIGNED_CONTEXT((#540))
GLOBAL_UNIT_ASSIGNED_CONTEXT((#544,#546,#547))
REPRESENTATION_CONTEXT('','3D')
);
#543=(
GEOMETRIC_REPRESENTATION_CONTEXT(3)
GLOBAL_UNCERTAINTY_ASSIGNED_CONTEXT((#541))
GLOBAL_UNIT_ASSIGNED_CONTEXT((#544,#546,#547))
REPRESENTATION_CONTEXT('','3D')
);
#544=(
LENGTH_UNIT()
NAMED_UNIT(*)
SI_UNIT(.MILLI.,.METRE.)
);
#545=(
LENGTH_UNIT()
NAMED_UNIT(*)
SI_UNIT(.CENTI.,.METRE.)
);
#546=(
NAMED_UNIT(*)
PLANE_ANGLE_UNIT()
SI_UNIT($,.RADIAN.)
);
#547=(
NAMED_UNIT(*)
SI_UNIT($,.STERADIAN.)
SOLID_ANGLE_UNIT()
);
#548=SHAPE_DEFINITION_REPRESENTATION(#549,#550);
#549=PRODUCT_DEFINITION_SHAPE('',$,#552);
#550=SHAPE_REPRESENTATION('',(#302),#542);
#551=PRODUCT_DEFINITION_CONTEXT('part definition',#556,'design');
#552=PRODUCT_DEFINITION(
'778520 KG2000UG Anschluss an Gussrohr DN_OD 160',
'778520 KG2000UG Anschluss an Gussrohr DN_OD 160',#553,#551);
#553=PRODUCT_DEFINITION_FORMATION('',$,#558);
#554=PRODUCT_RELATED_PRODUCT_CATEGORY(
'778520 KG2000UG Anschluss an Gussrohr DN_OD 160',
'778520 KG2000UG Anschluss an Gussrohr DN_OD 160',(#558));
#555=APPLICATION_PROTOCOL_DEFINITION('international standard',
'automotive_design',2009,#556);
#556=APPLICATION_CONTEXT(
'Core Data for Automotive Mechanical Design Process');
#557=PRODUCT_CONTEXT('part definition',#556,'mechanical');
#558=PRODUCT('778520 KG2000UG Anschluss an Gussrohr DN_OD 160',
'778520 KG2000UG Anschluss an Gussrohr DN_OD 160',$,(#557));
#559=PRESENTATION_STYLE_ASSIGNMENT((#560));
#560=SURFACE_STYLE_USAGE(.BOTH.,#563);
#561=SURFACE_STYLE_RENDERING_WITH_PROPERTIES($,#567,(#562));
#562=SURFACE_STYLE_TRANSPARENT(0.);
#563=SURFACE_SIDE_STYLE('',(#564,#561));
#564=SURFACE_STYLE_FILL_AREA(#565);
#565=FILL_AREA_STYLE('',(#566));
#566=FILL_AREA_STYLE_COLOUR('',#567);
#567=COLOUR_RGB('',0.749019607843137,0.749019607843137,0.749019607843137);
ENDSEC;
END-ISO-10303-21;
