ISO-10303-21;
HEADER;
/* Generated by software containing ST-Developer
 * from STEP Tools, Inc. (www.steptools.com) 
 */

FILE_DESCRIPTION(
/* description */ (''),
/* implementation_level */ '2;1');

FILE_NAME(
/* name */ 
'Y:\\ACad-Dateien\\Ostendorf\\KG2000\\Kundenzeichnung\\Standardzeichnu
ngen\\778420 KG2000UG Anschluss an Gussrohr DN_OD 125.stp',
/* time_stamp */ '2021-06-04T08:09:44+02:00',
/* author */ ('LWM'),
/* organization */ (''),
/* preprocessor_version */ 'ST-DEVELOPER v18',
/* originating_system */ 'Autodesk Inventor 2020',
/* authorisation */ '');

FILE_SCHEMA (('AUTOMOTIVE_DESIGN { 1 0 10303 214 3 1 1 }'));
ENDSEC;

DATA;
#10=MECHANICAL_DESIGN_GEOMETRIC_PRESENTATION_REPRESENTATION('',(#13),#543);
#11=SHAPE_REPRESENTATION_RELATIONSHIP('SRR','None',#550,#12);
#12=ADVANCED_BREP_SHAPE_REPRESENTATION('',(#14),#542);
#13=STYLED_ITEM('',(#559),#14);
#14=MANIFOLD_SOLID_BREP('Volumenk\X\F6rper1',#283);
#15=TOROIDAL_SURFACE('',#321,77.3001421549429,0.599999999999916);
#16=TOROIDAL_SURFACE('',#328,79.9,0.599999999999978);
#17=CONICAL_SURFACE('',#311,67.1,0.767104152745719);
#18=CONICAL_SURFACE('',#317,76.1102933295848,0.26179938779915);
#19=CONICAL_SURFACE('',#336,79.95,0.26179938779915);
#20=CONICAL_SURFACE('',#342,71.,0.767104152745718);
#21=CONICAL_SURFACE('',#348,61.6621778264911,0.261799387799149);
#22=LINE('',#465,#32);
#23=LINE('',#471,#33);
#24=LINE('',#477,#34);
#25=LINE('',#483,#35);
#26=LINE('',#513,#36);
#27=LINE('',#519,#37);
#28=LINE('',#525,#38);
#29=LINE('',#531,#39);
#30=LINE('',#537,#40);
#31=LINE('',#539,#41);
#32=VECTOR('',#363,58.7);
#33=VECTOR('',#370,67.1);
#34=VECTOR('',#377,75.5);
#35=VECTOR('',#384,76.1102933295848);
#36=VECTOR('',#421,80.5);
#37=VECTOR('',#428,79.95);
#38=VECTOR('',#435,79.4);
#39=VECTOR('',#442,71.);
#40=VECTOR('',#449,62.6);
#41=VECTOR('',#452,61.6621778264911);
#42=CYLINDRICAL_SURFACE('',#308,58.7);
#43=CYLINDRICAL_SURFACE('',#314,75.5);
#44=CYLINDRICAL_SURFACE('',#333,80.5);
#45=CYLINDRICAL_SURFACE('',#339,79.4);
#46=CYLINDRICAL_SURFACE('',#345,62.6);
#47=FACE_BOUND('',#64,.T.);
#48=FACE_BOUND('',#71,.T.);
#49=FACE_OUTER_BOUND('',#63,.T.);
#50=FACE_OUTER_BOUND('',#65,.T.);
#51=FACE_OUTER_BOUND('',#66,.T.);
#52=FACE_OUTER_BOUND('',#67,.T.);
#53=FACE_OUTER_BOUND('',#68,.T.);
#54=FACE_OUTER_BOUND('',#69,.T.);
#55=FACE_OUTER_BOUND('',#70,.T.);
#56=FACE_OUTER_BOUND('',#72,.T.);
#57=FACE_OUTER_BOUND('',#73,.T.);
#58=FACE_OUTER_BOUND('',#74,.T.);
#59=FACE_OUTER_BOUND('',#75,.T.);
#60=FACE_OUTER_BOUND('',#76,.T.);
#61=FACE_OUTER_BOUND('',#77,.T.);
#62=FACE_OUTER_BOUND('',#78,.T.);
#63=EDGE_LOOP('',(#183,#184));
#64=EDGE_LOOP('',(#185,#186));
#65=EDGE_LOOP('',(#187,#188,#189,#190,#191,#192));
#66=EDGE_LOOP('',(#193,#194,#195,#196,#197,#198));
#67=EDGE_LOOP('',(#199,#200,#201,#202,#203,#204));
#68=EDGE_LOOP('',(#205,#206,#207,#208,#209,#210,#211));
#69=EDGE_LOOP('',(#212,#213,#214,#215,#216,#217,#218));
#70=EDGE_LOOP('',(#219,#220));
#71=EDGE_LOOP('',(#221,#222));
#72=EDGE_LOOP('',(#223,#224,#225,#226,#227,#228,#229));
#73=EDGE_LOOP('',(#230,#231,#232,#233,#234,#235,#236));
#74=EDGE_LOOP('',(#237,#238,#239,#240,#241,#242));
#75=EDGE_LOOP('',(#243,#244,#245,#246,#247,#248));
#76=EDGE_LOOP('',(#249,#250,#251,#252,#253,#254));
#77=EDGE_LOOP('',(#255,#256,#257,#258,#259,#260));
#78=EDGE_LOOP('',(#261,#262,#263,#264,#265,#266));
#79=CIRCLE('',#304,60.7243556529821);
#80=CIRCLE('',#305,60.7243556529821);
#81=CIRCLE('',#306,58.7);
#82=CIRCLE('',#307,58.7);
#83=CIRCLE('',#309,58.7);
#84=CIRCLE('',#310,58.7);
#85=CIRCLE('',#312,75.5);
#86=CIRCLE('',#313,75.5);
#87=CIRCLE('',#315,75.5);
#88=CIRCLE('',#316,75.5);
#89=CIRCLE('',#318,76.7205866591696);
#90=CIRCLE('',#319,76.7205866591696);
#91=CIRCLE('',#320,76.7205866591696);
#92=CIRCLE('',#322,77.300142154943);
#93=CIRCLE('',#323,77.300142154943);
#94=CIRCLE('',#324,0.599999999999916);
#95=CIRCLE('',#326,79.9);
#96=CIRCLE('',#327,79.9);
#97=CIRCLE('',#329,80.5);
#98=CIRCLE('',#330,80.5);
#99=CIRCLE('',#331,80.5);
#100=CIRCLE('',#332,0.599999999999978);
#101=CIRCLE('',#334,80.5);
#102=CIRCLE('',#335,80.5);
#103=CIRCLE('',#337,79.4);
#104=CIRCLE('',#338,79.4);
#105=CIRCLE('',#340,79.4);
#106=CIRCLE('',#341,79.4);
#107=CIRCLE('',#343,62.6);
#108=CIRCLE('',#344,62.6);
#109=CIRCLE('',#346,62.6);
#110=CIRCLE('',#347,62.6);
#111=VERTEX_POINT('',#455);
#112=VERTEX_POINT('',#456);
#113=VERTEX_POINT('',#459);
#114=VERTEX_POINT('',#460);
#115=VERTEX_POINT('',#464);
#116=VERTEX_POINT('',#466);
#117=VERTEX_POINT('',#470);
#118=VERTEX_POINT('',#472);
#119=VERTEX_POINT('',#476);
#120=VERTEX_POINT('',#478);
#121=VERTEX_POINT('',#482);
#122=VERTEX_POINT('',#484);
#123=VERTEX_POINT('',#486);
#124=VERTEX_POINT('',#490);
#125=VERTEX_POINT('',#491);
#126=VERTEX_POINT('',#496);
#127=VERTEX_POINT('',#497);
#128=VERTEX_POINT('',#501);
#129=VERTEX_POINT('',#502);
#130=VERTEX_POINT('',#504);
#131=VERTEX_POINT('',#509);
#132=VERTEX_POINT('',#510);
#133=VERTEX_POINT('',#515);
#134=VERTEX_POINT('',#516);
#135=VERTEX_POINT('',#521);
#136=VERTEX_POINT('',#522);
#137=VERTEX_POINT('',#527);
#138=VERTEX_POINT('',#528);
#139=VERTEX_POINT('',#533);
#140=VERTEX_POINT('',#534);
#141=EDGE_CURVE('',#111,#112,#79,.T.);
#142=EDGE_CURVE('',#112,#111,#80,.T.);
#143=EDGE_CURVE('',#113,#114,#81,.T.);
#144=EDGE_CURVE('',#114,#113,#82,.T.);
#145=EDGE_CURVE('',#114,#115,#22,.T.);
#146=EDGE_CURVE('',#116,#115,#83,.T.);
#147=EDGE_CURVE('',#115,#116,#84,.T.);
#148=EDGE_CURVE('',#115,#117,#23,.T.);
#149=EDGE_CURVE('',#118,#117,#85,.T.);
#150=EDGE_CURVE('',#117,#118,#86,.T.);
#151=EDGE_CURVE('',#117,#119,#24,.T.);
#152=EDGE_CURVE('',#120,#119,#87,.T.);
#153=EDGE_CURVE('',#119,#120,#88,.T.);
#154=EDGE_CURVE('',#119,#121,#25,.T.);
#155=EDGE_CURVE('',#122,#121,#89,.T.);
#156=EDGE_CURVE('',#123,#122,#90,.T.);
#157=EDGE_CURVE('',#121,#123,#91,.T.);
#158=EDGE_CURVE('',#124,#125,#92,.T.);
#159=EDGE_CURVE('',#125,#124,#93,.T.);
#160=EDGE_CURVE('',#125,#122,#94,.T.);
#161=EDGE_CURVE('',#126,#127,#95,.T.);
#162=EDGE_CURVE('',#127,#126,#96,.T.);
#163=EDGE_CURVE('',#128,#129,#97,.T.);
#164=EDGE_CURVE('',#130,#128,#98,.T.);
#165=EDGE_CURVE('',#129,#130,#99,.T.);
#166=EDGE_CURVE('',#129,#127,#100,.T.);
#167=EDGE_CURVE('',#131,#132,#101,.T.);
#168=EDGE_CURVE('',#132,#131,#102,.T.);
#169=EDGE_CURVE('',#132,#130,#26,.T.);
#170=EDGE_CURVE('',#133,#134,#103,.T.);
#171=EDGE_CURVE('',#134,#133,#104,.T.);
#172=EDGE_CURVE('',#134,#132,#27,.T.);
#173=EDGE_CURVE('',#135,#136,#105,.T.);
#174=EDGE_CURVE('',#136,#135,#106,.T.);
#175=EDGE_CURVE('',#136,#134,#28,.T.);
#176=EDGE_CURVE('',#137,#138,#107,.T.);
#177=EDGE_CURVE('',#138,#137,#108,.T.);
#178=EDGE_CURVE('',#138,#136,#29,.T.);
#179=EDGE_CURVE('',#139,#140,#109,.T.);
#180=EDGE_CURVE('',#140,#139,#110,.T.);
#181=EDGE_CURVE('',#140,#138,#30,.T.);
#182=EDGE_CURVE('',#112,#140,#31,.T.);
#183=ORIENTED_EDGE('',*,*,#141,.T.);
#184=ORIENTED_EDGE('',*,*,#142,.T.);
#185=ORIENTED_EDGE('',*,*,#143,.F.);
#186=ORIENTED_EDGE('',*,*,#144,.F.);
#187=ORIENTED_EDGE('',*,*,#143,.T.);
#188=ORIENTED_EDGE('',*,*,#145,.T.);
#189=ORIENTED_EDGE('',*,*,#146,.F.);
#190=ORIENTED_EDGE('',*,*,#147,.F.);
#191=ORIENTED_EDGE('',*,*,#145,.F.);
#192=ORIENTED_EDGE('',*,*,#144,.T.);
#193=ORIENTED_EDGE('',*,*,#146,.T.);
#194=ORIENTED_EDGE('',*,*,#148,.T.);
#195=ORIENTED_EDGE('',*,*,#149,.F.);
#196=ORIENTED_EDGE('',*,*,#150,.F.);
#197=ORIENTED_EDGE('',*,*,#148,.F.);
#198=ORIENTED_EDGE('',*,*,#147,.T.);
#199=ORIENTED_EDGE('',*,*,#149,.T.);
#200=ORIENTED_EDGE('',*,*,#151,.T.);
#201=ORIENTED_EDGE('',*,*,#152,.F.);
#202=ORIENTED_EDGE('',*,*,#153,.F.);
#203=ORIENTED_EDGE('',*,*,#151,.F.);
#204=ORIENTED_EDGE('',*,*,#150,.T.);
#205=ORIENTED_EDGE('',*,*,#152,.T.);
#206=ORIENTED_EDGE('',*,*,#154,.T.);
#207=ORIENTED_EDGE('',*,*,#155,.F.);
#208=ORIENTED_EDGE('',*,*,#156,.F.);
#209=ORIENTED_EDGE('',*,*,#157,.F.);
#210=ORIENTED_EDGE('',*,*,#154,.F.);
#211=ORIENTED_EDGE('',*,*,#153,.T.);
#212=ORIENTED_EDGE('',*,*,#158,.F.);
#213=ORIENTED_EDGE('',*,*,#159,.F.);
#214=ORIENTED_EDGE('',*,*,#160,.T.);
#215=ORIENTED_EDGE('',*,*,#155,.T.);
#216=ORIENTED_EDGE('',*,*,#157,.T.);
#217=ORIENTED_EDGE('',*,*,#156,.T.);
#218=ORIENTED_EDGE('',*,*,#160,.F.);
#219=ORIENTED_EDGE('',*,*,#161,.F.);
#220=ORIENTED_EDGE('',*,*,#162,.F.);
#221=ORIENTED_EDGE('',*,*,#158,.T.);
#222=ORIENTED_EDGE('',*,*,#159,.T.);
#223=ORIENTED_EDGE('',*,*,#163,.F.);
#224=ORIENTED_EDGE('',*,*,#164,.F.);
#225=ORIENTED_EDGE('',*,*,#165,.F.);
#226=ORIENTED_EDGE('',*,*,#166,.T.);
#227=ORIENTED_EDGE('',*,*,#162,.T.);
#228=ORIENTED_EDGE('',*,*,#161,.T.);
#229=ORIENTED_EDGE('',*,*,#166,.F.);
#230=ORIENTED_EDGE('',*,*,#167,.F.);
#231=ORIENTED_EDGE('',*,*,#168,.F.);
#232=ORIENTED_EDGE('',*,*,#169,.T.);
#233=ORIENTED_EDGE('',*,*,#164,.T.);
#234=ORIENTED_EDGE('',*,*,#163,.T.);
#235=ORIENTED_EDGE('',*,*,#165,.T.);
#236=ORIENTED_EDGE('',*,*,#169,.F.);
#237=ORIENTED_EDGE('',*,*,#170,.F.);
#238=ORIENTED_EDGE('',*,*,#171,.F.);
#239=ORIENTED_EDGE('',*,*,#172,.T.);
#240=ORIENTED_EDGE('',*,*,#168,.T.);
#241=ORIENTED_EDGE('',*,*,#167,.T.);
#242=ORIENTED_EDGE('',*,*,#172,.F.);
#243=ORIENTED_EDGE('',*,*,#173,.F.);
#244=ORIENTED_EDGE('',*,*,#174,.F.);
#245=ORIENTED_EDGE('',*,*,#175,.T.);
#246=ORIENTED_EDGE('',*,*,#171,.T.);
#247=ORIENTED_EDGE('',*,*,#170,.T.);
#248=ORIENTED_EDGE('',*,*,#175,.F.);
#249=ORIENTED_EDGE('',*,*,#176,.F.);
#250=ORIENTED_EDGE('',*,*,#177,.F.);
#251=ORIENTED_EDGE('',*,*,#178,.T.);
#252=ORIENTED_EDGE('',*,*,#174,.T.);
#253=ORIENTED_EDGE('',*,*,#173,.T.);
#254=ORIENTED_EDGE('',*,*,#178,.F.);
#255=ORIENTED_EDGE('',*,*,#179,.F.);
#256=ORIENTED_EDGE('',*,*,#180,.F.);
#257=ORIENTED_EDGE('',*,*,#181,.T.);
#258=ORIENTED_EDGE('',*,*,#177,.T.);
#259=ORIENTED_EDGE('',*,*,#176,.T.);
#260=ORIENTED_EDGE('',*,*,#181,.F.);
#261=ORIENTED_EDGE('',*,*,#141,.F.);
#262=ORIENTED_EDGE('',*,*,#142,.F.);
#263=ORIENTED_EDGE('',*,*,#182,.T.);
#264=ORIENTED_EDGE('',*,*,#180,.T.);
#265=ORIENTED_EDGE('',*,*,#179,.T.);
#266=ORIENTED_EDGE('',*,*,#182,.F.);
#267=PLANE('',#303);
#268=PLANE('',#325);
#269=ADVANCED_FACE('',(#49,#47),#267,.T.);
#270=ADVANCED_FACE('',(#50),#42,.F.);
#271=ADVANCED_FACE('',(#51),#17,.F.);
#272=ADVANCED_FACE('',(#52),#43,.F.);
#273=ADVANCED_FACE('',(#53),#18,.F.);
#274=ADVANCED_FACE('',(#54),#15,.T.);
#275=ADVANCED_FACE('',(#55,#48),#268,.T.);
#276=ADVANCED_FACE('',(#56),#16,.T.);
#277=ADVANCED_FACE('',(#57),#44,.T.);
#278=ADVANCED_FACE('',(#58),#19,.T.);
#279=ADVANCED_FACE('',(#59),#45,.T.);
#280=ADVANCED_FACE('',(#60),#20,.T.);
#281=ADVANCED_FACE('',(#61),#46,.T.);
#282=ADVANCED_FACE('',(#62),#21,.T.);
#283=CLOSED_SHELL('',(#269,#270,#271,#272,#273,#274,#275,#276,#277,#278,
#279,#280,#281,#282));
#284=DERIVED_UNIT_ELEMENT(#286,1.);
#285=DERIVED_UNIT_ELEMENT(#545,3.);
#286=(
MASS_UNIT()
NAMED_UNIT(*)
SI_UNIT($,.GRAM.)
);
#287=DERIVED_UNIT((#284,#285));
#288=MEASURE_REPRESENTATION_ITEM('density measure',
POSITIVE_RATIO_MEASURE(1.),#287);
#289=PROPERTY_DEFINITION_REPRESENTATION(#294,#291);
#290=PROPERTY_DEFINITION_REPRESENTATION(#295,#292);
#291=REPRESENTATION('material name',(#293),#542);
#292=REPRESENTATION('density',(#288),#542);
#293=DESCRIPTIVE_REPRESENTATION_ITEM('Generisch','Generisch');
#294=PROPERTY_DEFINITION('material property','material name',#552);
#295=PROPERTY_DEFINITION('material property','density of part',#552);
#296=DATE_TIME_ROLE('creation_date');
#297=APPLIED_DATE_AND_TIME_ASSIGNMENT(#298,#296,(#552));
#298=DATE_AND_TIME(#299,#300);
#299=CALENDAR_DATE(2021,11,5);
#300=LOCAL_TIME(8,52,37.,#301);
#301=COORDINATED_UNIVERSAL_TIME_OFFSET(0,0,.BEHIND.);
#302=AXIS2_PLACEMENT_3D('placement',#453,#349,#350);
#303=AXIS2_PLACEMENT_3D('',#454,#351,#352);
#304=AXIS2_PLACEMENT_3D('',#457,#353,#354);
#305=AXIS2_PLACEMENT_3D('',#458,#355,#356);
#306=AXIS2_PLACEMENT_3D('',#461,#357,#358);
#307=AXIS2_PLACEMENT_3D('',#462,#359,#360);
#308=AXIS2_PLACEMENT_3D('',#463,#361,#362);
#309=AXIS2_PLACEMENT_3D('',#467,#364,#365);
#310=AXIS2_PLACEMENT_3D('',#468,#366,#367);
#311=AXIS2_PLACEMENT_3D('',#469,#368,#369);
#312=AXIS2_PLACEMENT_3D('',#473,#371,#372);
#313=AXIS2_PLACEMENT_3D('',#474,#373,#374);
#314=AXIS2_PLACEMENT_3D('',#475,#375,#376);
#315=AXIS2_PLACEMENT_3D('',#479,#378,#379);
#316=AXIS2_PLACEMENT_3D('',#480,#380,#381);
#317=AXIS2_PLACEMENT_3D('',#481,#382,#383);
#318=AXIS2_PLACEMENT_3D('',#485,#385,#386);
#319=AXIS2_PLACEMENT_3D('',#487,#387,#388);
#320=AXIS2_PLACEMENT_3D('',#488,#389,#390);
#321=AXIS2_PLACEMENT_3D('',#489,#391,#392);
#322=AXIS2_PLACEMENT_3D('',#492,#393,#394);
#323=AXIS2_PLACEMENT_3D('',#493,#395,#396);
#324=AXIS2_PLACEMENT_3D('',#494,#397,#398);
#325=AXIS2_PLACEMENT_3D('',#495,#399,#400);
#326=AXIS2_PLACEMENT_3D('',#498,#401,#402);
#327=AXIS2_PLACEMENT_3D('',#499,#403,#404);
#328=AXIS2_PLACEMENT_3D('',#500,#405,#406);
#329=AXIS2_PLACEMENT_3D('',#503,#407,#408);
#330=AXIS2_PLACEMENT_3D('',#505,#409,#410);
#331=AXIS2_PLACEMENT_3D('',#506,#411,#412);
#332=AXIS2_PLACEMENT_3D('',#507,#413,#414);
#333=AXIS2_PLACEMENT_3D('',#508,#415,#416);
#334=AXIS2_PLACEMENT_3D('',#511,#417,#418);
#335=AXIS2_PLACEMENT_3D('',#512,#419,#420);
#336=AXIS2_PLACEMENT_3D('',#514,#422,#423);
#337=AXIS2_PLACEMENT_3D('',#517,#424,#425);
#338=AXIS2_PLACEMENT_3D('',#518,#426,#427);
#339=AXIS2_PLACEMENT_3D('',#520,#429,#430);
#340=AXIS2_PLACEMENT_3D('',#523,#431,#432);
#341=AXIS2_PLACEMENT_3D('',#524,#433,#434);
#342=AXIS2_PLACEMENT_3D('',#526,#436,#437);
#343=AXIS2_PLACEMENT_3D('',#529,#438,#439);
#344=AXIS2_PLACEMENT_3D('',#530,#440,#441);
#345=AXIS2_PLACEMENT_3D('',#532,#443,#444);
#346=AXIS2_PLACEMENT_3D('',#535,#445,#446);
#347=AXIS2_PLACEMENT_3D('',#536,#447,#448);
#348=AXIS2_PLACEMENT_3D('',#538,#450,#451);
#349=DIRECTION('axis',(0.,0.,1.));
#350=DIRECTION('refdir',(1.,0.,0.));
#351=DIRECTION('center_axis',(0.,-1.,0.));
#352=DIRECTION('ref_axis',(0.,0.,-1.));
#353=DIRECTION('center_axis',(0.,-1.,0.));
#354=DIRECTION('ref_axis',(1.,0.,0.));
#355=DIRECTION('center_axis',(0.,-1.,0.));
#356=DIRECTION('ref_axis',(1.,0.,0.));
#357=DIRECTION('center_axis',(0.,-1.,0.));
#358=DIRECTION('ref_axis',(1.,0.,0.));
#359=DIRECTION('center_axis',(0.,-1.,0.));
#360=DIRECTION('ref_axis',(1.,0.,0.));
#361=DIRECTION('center_axis',(0.,-1.,0.));
#362=DIRECTION('ref_axis',(1.,0.,0.));
#363=DIRECTION('',(0.,1.,0.));
#364=DIRECTION('center_axis',(0.,-1.,0.));
#365=DIRECTION('ref_axis',(1.,0.,0.));
#366=DIRECTION('center_axis',(0.,-1.,0.));
#367=DIRECTION('ref_axis',(1.,0.,0.));
#368=DIRECTION('center_axis',(0.,1.,0.));
#369=DIRECTION('ref_axis',(1.,0.,0.));
#370=DIRECTION('',(-0.694053363022502,0.719923557940116,-8.49970229462963E-17));
#371=DIRECTION('center_axis',(0.,-1.,0.));
#372=DIRECTION('ref_axis',(1.,0.,0.));
#373=DIRECTION('center_axis',(0.,-1.,0.));
#374=DIRECTION('ref_axis',(1.,0.,0.));
#375=DIRECTION('center_axis',(0.,-1.,0.));
#376=DIRECTION('ref_axis',(1.,0.,0.));
#377=DIRECTION('',(0.,1.,0.));
#378=DIRECTION('center_axis',(0.,-1.,0.));
#379=DIRECTION('ref_axis',(1.,0.,0.));
#380=DIRECTION('center_axis',(0.,-1.,0.));
#381=DIRECTION('ref_axis',(1.,0.,0.));
#382=DIRECTION('center_axis',(0.,1.,0.));
#383=DIRECTION('ref_axis',(1.,0.,0.));
#384=DIRECTION('',(-0.258819045102522,0.965925826289068,-3.16961915143178E-17));
#385=DIRECTION('center_axis',(0.,-1.,0.));
#386=DIRECTION('ref_axis',(1.,0.,0.));
#387=DIRECTION('center_axis',(0.,-1.,0.));
#388=DIRECTION('ref_axis',(1.,0.,0.));
#389=DIRECTION('center_axis',(0.,-1.,0.));
#390=DIRECTION('ref_axis',(1.,0.,0.));
#391=DIRECTION('center_axis',(0.,-1.,0.));
#392=DIRECTION('ref_axis',(0.,0.,-1.));
#393=DIRECTION('center_axis',(0.,-1.,0.));
#394=DIRECTION('ref_axis',(1.,0.,0.));
#395=DIRECTION('center_axis',(0.,-1.,0.));
#396=DIRECTION('ref_axis',(1.,0.,0.));
#397=DIRECTION('center_axis',(-1.,0.,-1.22464679914735E-16));
#398=DIRECTION('ref_axis',(-1.22464679914735E-16,0.,1.));
#399=DIRECTION('center_axis',(0.,1.,0.));
#400=DIRECTION('ref_axis',(0.,0.,1.));
#401=DIRECTION('center_axis',(0.,-1.,0.));
#402=DIRECTION('ref_axis',(1.,0.,0.));
#403=DIRECTION('center_axis',(0.,-1.,0.));
#404=DIRECTION('ref_axis',(1.,0.,0.));
#405=DIRECTION('center_axis',(0.,-1.,0.));
#406=DIRECTION('ref_axis',(0.,0.,-1.));
#407=DIRECTION('center_axis',(0.,-1.,0.));
#408=DIRECTION('ref_axis',(1.,0.,0.));
#409=DIRECTION('center_axis',(0.,-1.,0.));
#410=DIRECTION('ref_axis',(1.,0.,0.));
#411=DIRECTION('center_axis',(0.,-1.,0.));
#412=DIRECTION('ref_axis',(1.,0.,0.));
#413=DIRECTION('center_axis',(-1.,0.,-1.22464679914735E-16));
#414=DIRECTION('ref_axis',(-1.22464679914735E-16,0.,1.));
#415=DIRECTION('center_axis',(0.,-1.,0.));
#416=DIRECTION('ref_axis',(1.,0.,0.));
#417=DIRECTION('center_axis',(0.,-1.,0.));
#418=DIRECTION('ref_axis',(1.,0.,0.));
#419=DIRECTION('center_axis',(0.,-1.,0.));
#420=DIRECTION('ref_axis',(1.,0.,0.));
#421=DIRECTION('',(0.,1.,0.));
#422=DIRECTION('center_axis',(0.,1.,0.));
#423=DIRECTION('ref_axis',(1.,0.,0.));
#424=DIRECTION('center_axis',(0.,-1.,0.));
#425=DIRECTION('ref_axis',(1.,0.,0.));
#426=DIRECTION('center_axis',(0.,-1.,0.));
#427=DIRECTION('ref_axis',(1.,0.,0.));
#428=DIRECTION('',(-0.258819045102521,0.965925826289068,-3.16961915143177E-17));
#429=DIRECTION('center_axis',(0.,-1.,0.));
#430=DIRECTION('ref_axis',(1.,0.,0.));
#431=DIRECTION('center_axis',(0.,-1.,0.));
#432=DIRECTION('ref_axis',(1.,0.,0.));
#433=DIRECTION('center_axis',(0.,-1.,0.));
#434=DIRECTION('ref_axis',(1.,0.,0.));
#435=DIRECTION('',(0.,1.,0.));
#436=DIRECTION('center_axis',(0.,1.,0.));
#437=DIRECTION('ref_axis',(1.,0.,0.));
#438=DIRECTION('center_axis',(0.,-1.,0.));
#439=DIRECTION('ref_axis',(1.,0.,0.));
#440=DIRECTION('center_axis',(0.,-1.,0.));
#441=DIRECTION('ref_axis',(1.,0.,0.));
#442=DIRECTION('',(-0.694053363022501,0.719923557940117,-8.49970229462962E-17));
#443=DIRECTION('center_axis',(0.,-1.,0.));
#444=DIRECTION('ref_axis',(1.,0.,0.));
#445=DIRECTION('center_axis',(0.,-1.,0.));
#446=DIRECTION('ref_axis',(1.,0.,0.));
#447=DIRECTION('center_axis',(0.,-1.,0.));
#448=DIRECTION('ref_axis',(1.,0.,0.));
#449=DIRECTION('',(0.,1.,0.));
#450=DIRECTION('center_axis',(0.,1.,0.));
#451=DIRECTION('ref_axis',(1.,0.,0.));
#452=DIRECTION('',(-0.25881904510252,0.965925826289068,-3.16961915143176E-17));
#453=CARTESIAN_POINT('',(0.,0.,0.));
#454=CARTESIAN_POINT('Origin',(58.7,1.07830150664924E-14,0.));
#455=CARTESIAN_POINT('',(60.7243556529821,9.99200722162641E-15,0.));
#456=CARTESIAN_POINT('',(-60.7243556529821,8.88178419700125E-15,-7.43658877807101E-15));
#457=CARTESIAN_POINT('Origin',(0.,9.99200722162641E-15,0.));
#458=CARTESIAN_POINT('Origin',(0.,9.99200722162641E-15,0.));
#459=CARTESIAN_POINT('',(58.7,1.07830150664924E-14,0.));
#460=CARTESIAN_POINT('',(-58.7,8.88178419700125E-15,-7.18867671099497E-15));
#461=CARTESIAN_POINT('Origin',(0.,1.0547118733939E-14,0.));
#462=CARTESIAN_POINT('Origin',(0.,1.0547118733939E-14,0.));
#463=CARTESIAN_POINT('Origin',(0.,38.2868977965014,0.));
#464=CARTESIAN_POINT('',(-58.7,76.5737955930028,-7.18867671099497E-15));
#465=CARTESIAN_POINT('',(-58.7,38.2868977965014,-7.18867671099497E-15));
#466=CARTESIAN_POINT('',(58.7,76.5737955930028,0.));
#467=CARTESIAN_POINT('Origin',(0.,76.5737955930028,0.));
#468=CARTESIAN_POINT('Origin',(0.,76.5737955930028,0.));
#469=CARTESIAN_POINT('Origin',(0.,85.2868977965014,0.));
#470=CARTESIAN_POINT('',(-75.5,94.,-9.24608333356252E-15));
#471=CARTESIAN_POINT('',(-67.1,85.2868977965014,-8.21738002227874E-15));
#472=CARTESIAN_POINT('',(75.5,94.,0.));
#473=CARTESIAN_POINT('Origin',(0.,94.,0.));
#474=CARTESIAN_POINT('Origin',(0.,94.,0.));
#475=CARTESIAN_POINT('Origin',(0.,134.5,0.));
#476=CARTESIAN_POINT('',(-75.5,175.,-9.24608333356252E-15));
#477=CARTESIAN_POINT('',(-75.5,134.5,-9.24608333356252E-15));
#478=CARTESIAN_POINT('',(75.5,175.,0.));
#479=CARTESIAN_POINT('Origin',(0.,175.,0.));
#480=CARTESIAN_POINT('Origin',(0.,175.,0.));
#481=CARTESIAN_POINT('Origin',(0.,177.277645713531,0.));
#482=CARTESIAN_POINT('',(-76.7205866591696,179.555291427062,-9.39556208808591E-15));
#483=CARTESIAN_POINT('',(-76.1102933295848,177.277645713531,-9.32082271082422E-15));
#484=CARTESIAN_POINT('',(-9.39556208808591E-15,179.555291427062,76.7205866591696));
#485=CARTESIAN_POINT('Origin',(0.,179.555291427062,0.));
#486=CARTESIAN_POINT('',(76.7205866591696,179.555291427062,0.));
#487=CARTESIAN_POINT('Origin',(0.,179.555291427062,0.));
#488=CARTESIAN_POINT('Origin',(0.,179.555291427062,0.));
#489=CARTESIAN_POINT('Origin',(0.,179.4,0.));
#490=CARTESIAN_POINT('',(77.300142154943,180.,0.));
#491=CARTESIAN_POINT('',(-9.46653716636863E-15,180.,77.300142154943));
#492=CARTESIAN_POINT('Origin',(0.,180.,0.));
#493=CARTESIAN_POINT('Origin',(0.,180.,0.));
#494=CARTESIAN_POINT('Origin',(-9.46653716636863E-15,179.4,77.3001421549429));
#495=CARTESIAN_POINT('Origin',(79.9,180.,0.));
#496=CARTESIAN_POINT('',(79.9,180.,0.));
#497=CARTESIAN_POINT('',(-9.78492792518735E-15,180.,79.9));
#498=CARTESIAN_POINT('Origin',(0.,180.,0.));
#499=CARTESIAN_POINT('Origin',(0.,180.,0.));
#500=CARTESIAN_POINT('Origin',(0.,179.4,0.));
#501=CARTESIAN_POINT('',(80.5,179.4,0.));
#502=CARTESIAN_POINT('',(-9.8584067331362E-15,179.4,80.5));
#503=CARTESIAN_POINT('Origin',(0.,179.4,0.));
#504=CARTESIAN_POINT('',(-80.5,179.4,-9.8584067331362E-15));
#505=CARTESIAN_POINT('Origin',(0.,179.4,0.));
#506=CARTESIAN_POINT('Origin',(0.,179.4,0.));
#507=CARTESIAN_POINT('Origin',(-9.78492792518736E-15,179.4,79.9));
#508=CARTESIAN_POINT('Origin',(0.,178.995905573867,0.));
#509=CARTESIAN_POINT('',(80.5,178.591811147735,0.));
#510=CARTESIAN_POINT('',(-80.5,178.591811147735,-9.8584067331362E-15));
#511=CARTESIAN_POINT('Origin',(0.,178.591811147735,0.));
#512=CARTESIAN_POINT('Origin',(0.,178.591811147735,0.));
#513=CARTESIAN_POINT('',(-80.5,178.995905573867,-9.8584067331362E-15));
#514=CARTESIAN_POINT('Origin',(0.,176.539183203572,0.));
#515=CARTESIAN_POINT('',(79.4,174.486555259409,0.));
#516=CARTESIAN_POINT('',(-79.4,174.486555259409,-9.72369558522998E-15));
#517=CARTESIAN_POINT('Origin',(0.,174.486555259409,0.));
#518=CARTESIAN_POINT('Origin',(0.,174.486555259409,0.));
#519=CARTESIAN_POINT('',(-79.95,176.539183203572,-9.79105115918309E-15));
#520=CARTESIAN_POINT('Origin',(0.,133.456379833203,0.));
#521=CARTESIAN_POINT('',(79.4,92.4262044069973,0.));
#522=CARTESIAN_POINT('',(-79.4,92.4262044069973,-9.72369558522998E-15));
#523=CARTESIAN_POINT('Origin',(0.,92.4262044069973,0.));
#524=CARTESIAN_POINT('Origin',(0.,92.4262044069973,0.));
#525=CARTESIAN_POINT('',(-79.4,133.456379833203,-9.72369558522998E-15));
#526=CARTESIAN_POINT('Origin',(0.,83.7131022034986,0.));
#527=CARTESIAN_POINT('',(62.6,75.,0.));
#528=CARTESIAN_POINT('',(-62.6,75.,-7.66628896266243E-15));
#529=CARTESIAN_POINT('Origin',(0.,75.,0.));
#530=CARTESIAN_POINT('Origin',(0.,75.,0.));
#531=CARTESIAN_POINT('',(-71.,83.7131022034986,-8.69499227394621E-15));
#532=CARTESIAN_POINT('Origin',(0.,41.,0.));
#533=CARTESIAN_POINT('',(62.6,7.00000000000001,0.));
#534=CARTESIAN_POINT('',(-62.6,7.00000000000001,-7.66628896266243E-15));
#535=CARTESIAN_POINT('Origin',(0.,7.00000000000001,0.));
#536=CARTESIAN_POINT('Origin',(0.,7.00000000000001,0.));
#537=CARTESIAN_POINT('',(-62.6,41.,-7.66628896266243E-15));
#538=CARTESIAN_POINT('Origin',(0.,3.50000000000001,0.));
#539=CARTESIAN_POINT('',(-61.6621778264911,3.50000000000001,-7.55143887036672E-15));
#540=UNCERTAINTY_MEASURE_WITH_UNIT(LENGTH_MEASURE(0.01),#544,
'DISTANCE_ACCURACY_VALUE',
'Maximum model space distance between geometric entities at asserted c
onnectivities');
#541=UNCERTAINTY_MEASURE_WITH_UNIT(LENGTH_MEASURE(0.01),#544,
'DISTANCE_ACCURACY_VALUE',
'Maximum model space distance between geometric entities at asserted c
onnectivities');
#542=(
GEOMETRIC_REPRESENTATION_CONTEXT(3)
GLOBAL_UNCERTAINTY_ASSIGNED_CONTEXT((#540))
GLOBAL_UNIT_ASSIGNED_CONTEXT((#544,#546,#547))
REPRESENTATION_CONTEXT('','3D')
);
#543=(
GEOMETRIC_REPRESENTATION_CONTEXT(3)
GLOBAL_UNCERTAINTY_ASSIGNED_CONTEXT((#541))
GLOBAL_UNIT_ASSIGNED_CONTEXT((#544,#546,#547))
REPRESENTATION_CONTEXT('','3D')
);
#544=(
LENGTH_UNIT()
NAMED_UNIT(*)
SI_UNIT(.MILLI.,.METRE.)
);
#545=(
LENGTH_UNIT()
NAMED_UNIT(*)
SI_UNIT(.CENTI.,.METRE.)
);
#546=(
NAMED_UNIT(*)
PLANE_ANGLE_UNIT()
SI_UNIT($,.RADIAN.)
);
#547=(
NAMED_UNIT(*)
SI_UNIT($,.STERADIAN.)
SOLID_ANGLE_UNIT()
);
#548=SHAPE_DEFINITION_REPRESENTATION(#549,#550);
#549=PRODUCT_DEFINITION_SHAPE('',$,#552);
#550=SHAPE_REPRESENTATION('',(#302),#542);
#551=PRODUCT_DEFINITION_CONTEXT('part definition',#556,'design');
#552=PRODUCT_DEFINITION(
'778420 KG2000UG Anschluss an Gussrohr DN_OD 125',
'778420 KG2000UG Anschluss an Gussrohr DN_OD 125',#553,#551);
#553=PRODUCT_DEFINITION_FORMATION('',$,#558);
#554=PRODUCT_RELATED_PRODUCT_CATEGORY(
'778420 KG2000UG Anschluss an Gussrohr DN_OD 125',
'778420 KG2000UG Anschluss an Gussrohr DN_OD 125',(#558));
#555=APPLICATION_PROTOCOL_DEFINITION('international standard',
'automotive_design',2009,#556);
#556=APPLICATION_CONTEXT(
'Core Data for Automotive Mechanical Design Process');
#557=PRODUCT_CONTEXT('part definition',#556,'mechanical');
#558=PRODUCT('778420 KG2000UG Anschluss an Gussrohr DN_OD 125',
'778420 KG2000UG Anschluss an Gussrohr DN_OD 125',$,(#557));
#559=PRESENTATION_STYLE_ASSIGNMENT((#560));
#560=SURFACE_STYLE_USAGE(.BOTH.,#563);
#561=SURFACE_STYLE_RENDERING_WITH_PROPERTIES($,#567,(#562));
#562=SURFACE_STYLE_TRANSPARENT(0.);
#563=SURFACE_SIDE_STYLE('',(#564,#561));
#564=SURFACE_STYLE_FILL_AREA(#565);
#565=FILL_AREA_STYLE('',(#566));
#566=FILL_AREA_STYLE_COLOUR('',#567);
#567=COLOUR_RGB('',0.749019607843137,0.749019607843137,0.749019607843137);
ENDSEC;
END-ISO-10303-21;
