ISO-10303-21;
HEADER;
/* Generated by software containing ST-Developer
 * from STEP Tools, Inc. (www.steptools.com) 
 */

FILE_DESCRIPTION(
/* description */ (''),
/* implementation_level */ '2;1');

FILE_NAME(
/* name */ 
'Y:\\ACad-Dateien\\Ostendorf\\KG2000\\Kundenzeichnung\\777820 KG2000M 
Muffenstopfen DN_OD 315.stp',
/* time_stamp */ '2017-01-30T16:44:24+01:00',
/* author */ ('user1'),
/* organization */ (''),
/* preprocessor_version */ 'ST-DEVELOPER v16.1',
/* originating_system */ 'Autodesk Inventor 2016',
/* authorisation */ '');

FILE_SCHEMA (('AUTOMOTIVE_DESIGN { 1 0 10303 214 3 1 1 }'));
ENDSEC;

DATA;
#10=MECHANICAL_DESIGN_GEOMETRIC_PRESENTATION_REPRESENTATION('',(#13),#209);
#11=SHAPE_REPRESENTATION_RELATIONSHIP('SRR','None',#218,#12);
#12=ADVANCED_BREP_SHAPE_REPRESENTATION('',(#14),#208);
#13=STYLED_ITEM('',(#227),#14);
#14=MANIFOLD_SOLID_BREP('Volumenk\X\F6rper1',#116);
#15=CONICAL_SURFACE('',#128,156.578203230276,14.9999999999999);
#16=TOROIDAL_SURFACE('',#124,159.65,1.99999999999999);
#17=TOROIDAL_SURFACE('',#134,145.65,1.99999999999999);
#18=FACE_BOUND('',#41,.T.);
#19=FACE_BOUND('',#43,.T.);
#20=FACE_BOUND('',#45,.T.);
#21=FACE_BOUND('',#47,.T.);
#22=FACE_BOUND('',#49,.T.);
#23=FACE_BOUND('',#51,.T.);
#24=FACE_BOUND('',#53,.T.);
#25=FACE_BOUND('',#55,.T.);
#26=CYLINDRICAL_SURFACE('',#120,167.25);
#27=CYLINDRICAL_SURFACE('',#126,157.65);
#28=CYLINDRICAL_SURFACE('',#132,147.65);
#29=FACE_OUTER_BOUND('',#39,.T.);
#30=FACE_OUTER_BOUND('',#40,.T.);
#31=FACE_OUTER_BOUND('',#42,.T.);
#32=FACE_OUTER_BOUND('',#44,.T.);
#33=FACE_OUTER_BOUND('',#46,.T.);
#34=FACE_OUTER_BOUND('',#48,.T.);
#35=FACE_OUTER_BOUND('',#50,.T.);
#36=FACE_OUTER_BOUND('',#52,.T.);
#37=FACE_OUTER_BOUND('',#54,.T.);
#38=FACE_OUTER_BOUND('',#56,.T.);
#39=EDGE_LOOP('',(#84));
#40=EDGE_LOOP('',(#85));
#41=EDGE_LOOP('',(#86));
#42=EDGE_LOOP('',(#87));
#43=EDGE_LOOP('',(#88));
#44=EDGE_LOOP('',(#89));
#45=EDGE_LOOP('',(#90));
#46=EDGE_LOOP('',(#91));
#47=EDGE_LOOP('',(#92));
#48=EDGE_LOOP('',(#93));
#49=EDGE_LOOP('',(#94));
#50=EDGE_LOOP('',(#95));
#51=EDGE_LOOP('',(#96));
#52=EDGE_LOOP('',(#97));
#53=EDGE_LOOP('',(#98));
#54=EDGE_LOOP('',(#99));
#55=EDGE_LOOP('',(#100));
#56=EDGE_LOOP('',(#101));
#57=CIRCLE('',#119,167.25);
#58=CIRCLE('',#121,167.25);
#59=CIRCLE('',#123,159.65);
#60=CIRCLE('',#125,157.65);
#61=CIRCLE('',#127,157.65);
#62=CIRCLE('',#129,155.506406460551);
#63=CIRCLE('',#131,147.65);
#64=CIRCLE('',#133,147.65);
#65=CIRCLE('',#135,145.65);
#66=VERTEX_POINT('',#179);
#67=VERTEX_POINT('',#182);
#68=VERTEX_POINT('',#185);
#69=VERTEX_POINT('',#188);
#70=VERTEX_POINT('',#191);
#71=VERTEX_POINT('',#194);
#72=VERTEX_POINT('',#197);
#73=VERTEX_POINT('',#200);
#74=VERTEX_POINT('',#203);
#75=EDGE_CURVE('',#66,#66,#57,.T.);
#76=EDGE_CURVE('',#67,#67,#58,.T.);
#77=EDGE_CURVE('',#68,#68,#59,.T.);
#78=EDGE_CURVE('',#69,#69,#60,.T.);
#79=EDGE_CURVE('',#70,#70,#61,.T.);
#80=EDGE_CURVE('',#71,#71,#62,.T.);
#81=EDGE_CURVE('',#72,#72,#63,.T.);
#82=EDGE_CURVE('',#73,#73,#64,.T.);
#83=EDGE_CURVE('',#74,#74,#65,.T.);
#84=ORIENTED_EDGE('',*,*,#75,.F.);
#85=ORIENTED_EDGE('',*,*,#75,.T.);
#86=ORIENTED_EDGE('',*,*,#76,.F.);
#87=ORIENTED_EDGE('',*,*,#76,.T.);
#88=ORIENTED_EDGE('',*,*,#77,.F.);
#89=ORIENTED_EDGE('',*,*,#77,.T.);
#90=ORIENTED_EDGE('',*,*,#78,.F.);
#91=ORIENTED_EDGE('',*,*,#78,.T.);
#92=ORIENTED_EDGE('',*,*,#79,.F.);
#93=ORIENTED_EDGE('',*,*,#79,.T.);
#94=ORIENTED_EDGE('',*,*,#80,.F.);
#95=ORIENTED_EDGE('',*,*,#80,.T.);
#96=ORIENTED_EDGE('',*,*,#81,.F.);
#97=ORIENTED_EDGE('',*,*,#81,.T.);
#98=ORIENTED_EDGE('',*,*,#82,.F.);
#99=ORIENTED_EDGE('',*,*,#82,.T.);
#100=ORIENTED_EDGE('',*,*,#83,.F.);
#101=ORIENTED_EDGE('',*,*,#83,.T.);
#102=PLANE('',#118);
#103=PLANE('',#122);
#104=PLANE('',#130);
#105=PLANE('',#136);
#106=ADVANCED_FACE('',(#29),#102,.T.);
#107=ADVANCED_FACE('',(#30,#18),#26,.T.);
#108=ADVANCED_FACE('',(#31,#19),#103,.T.);
#109=ADVANCED_FACE('',(#32,#20),#16,.F.);
#110=ADVANCED_FACE('',(#33,#21),#27,.T.);
#111=ADVANCED_FACE('',(#34,#22),#15,.T.);
#112=ADVANCED_FACE('',(#35,#23),#104,.T.);
#113=ADVANCED_FACE('',(#36,#24),#28,.F.);
#114=ADVANCED_FACE('',(#37,#25),#17,.F.);
#115=ADVANCED_FACE('',(#38),#105,.T.);
#116=CLOSED_SHELL('',(#106,#107,#108,#109,#110,#111,#112,#113,#114,#115));
#117=AXIS2_PLACEMENT_3D('placement',#177,#137,#138);
#118=AXIS2_PLACEMENT_3D('',#178,#139,#140);
#119=AXIS2_PLACEMENT_3D('',#180,#141,#142);
#120=AXIS2_PLACEMENT_3D('',#181,#143,#144);
#121=AXIS2_PLACEMENT_3D('',#183,#145,#146);
#122=AXIS2_PLACEMENT_3D('',#184,#147,#148);
#123=AXIS2_PLACEMENT_3D('',#186,#149,#150);
#124=AXIS2_PLACEMENT_3D('',#187,#151,#152);
#125=AXIS2_PLACEMENT_3D('',#189,#153,#154);
#126=AXIS2_PLACEMENT_3D('',#190,#155,#156);
#127=AXIS2_PLACEMENT_3D('',#192,#157,#158);
#128=AXIS2_PLACEMENT_3D('',#193,#159,#160);
#129=AXIS2_PLACEMENT_3D('',#195,#161,#162);
#130=AXIS2_PLACEMENT_3D('',#196,#163,#164);
#131=AXIS2_PLACEMENT_3D('',#198,#165,#166);
#132=AXIS2_PLACEMENT_3D('',#199,#167,#168);
#133=AXIS2_PLACEMENT_3D('',#201,#169,#170);
#134=AXIS2_PLACEMENT_3D('',#202,#171,#172);
#135=AXIS2_PLACEMENT_3D('',#204,#173,#174);
#136=AXIS2_PLACEMENT_3D('',#205,#175,#176);
#137=DIRECTION('axis',(0.,0.,1.));
#138=DIRECTION('refdir',(1.,0.,0.));
#139=DIRECTION('center_axis',(0.,1.,0.));
#140=DIRECTION('ref_axis',(0.,0.,1.));
#141=DIRECTION('center_axis',(0.,-1.,0.));
#142=DIRECTION('ref_axis',(1.,0.,0.));
#143=DIRECTION('center_axis',(0.,-1.,0.));
#144=DIRECTION('ref_axis',(1.,0.,0.));
#145=DIRECTION('center_axis',(0.,-1.,0.));
#146=DIRECTION('ref_axis',(1.,0.,0.));
#147=DIRECTION('center_axis',(0.,-1.,0.));
#148=DIRECTION('ref_axis',(0.,0.,-1.));
#149=DIRECTION('center_axis',(0.,-1.,0.));
#150=DIRECTION('ref_axis',(1.,0.,0.));
#151=DIRECTION('center_axis',(0.,-1.,0.));
#152=DIRECTION('ref_axis',(0.,0.,-1.));
#153=DIRECTION('center_axis',(0.,-1.,0.));
#154=DIRECTION('ref_axis',(1.,0.,0.));
#155=DIRECTION('center_axis',(0.,-1.,0.));
#156=DIRECTION('ref_axis',(1.,0.,0.));
#157=DIRECTION('center_axis',(0.,-1.,0.));
#158=DIRECTION('ref_axis',(1.,0.,0.));
#159=DIRECTION('center_axis',(0.,1.,0.));
#160=DIRECTION('ref_axis',(1.,0.,0.));
#161=DIRECTION('center_axis',(0.,-1.,0.));
#162=DIRECTION('ref_axis',(1.,0.,0.));
#163=DIRECTION('center_axis',(0.,-1.,0.));
#164=DIRECTION('ref_axis',(0.,0.,-1.));
#165=DIRECTION('center_axis',(0.,-1.,0.));
#166=DIRECTION('ref_axis',(1.,0.,0.));
#167=DIRECTION('center_axis',(0.,-1.,0.));
#168=DIRECTION('ref_axis',(1.,0.,0.));
#169=DIRECTION('center_axis',(0.,-1.,0.));
#170=DIRECTION('ref_axis',(1.,0.,0.));
#171=DIRECTION('center_axis',(0.,-1.,0.));
#172=DIRECTION('ref_axis',(0.,0.,-1.));
#173=DIRECTION('center_axis',(0.,-1.,0.));
#174=DIRECTION('ref_axis',(1.,0.,0.));
#175=DIRECTION('center_axis',(0.,-1.,0.));
#176=DIRECTION('ref_axis',(0.,0.,-1.));
#177=CARTESIAN_POINT('',(0.,0.,0.));
#178=CARTESIAN_POINT('Origin',(167.25,107.5,0.));
#179=CARTESIAN_POINT('',(167.25,107.5,0.));
#180=CARTESIAN_POINT('Origin',(0.,107.5,0.));
#181=CARTESIAN_POINT('Origin',(0.,101.75,0.));
#182=CARTESIAN_POINT('',(167.25,96.,0.));
#183=CARTESIAN_POINT('Origin',(0.,96.,0.));
#184=CARTESIAN_POINT('Origin',(159.65,96.,0.));
#185=CARTESIAN_POINT('',(159.65,96.,0.));
#186=CARTESIAN_POINT('Origin',(0.,96.,0.));
#187=CARTESIAN_POINT('Origin',(0.,94.,0.));
#188=CARTESIAN_POINT('',(157.65,94.,0.));
#189=CARTESIAN_POINT('Origin',(0.,94.,0.));
#190=CARTESIAN_POINT('Origin',(0.,51.,0.));
#191=CARTESIAN_POINT('',(157.65,8.,0.));
#192=CARTESIAN_POINT('Origin',(0.,8.00000000000001,0.));
#193=CARTESIAN_POINT('Origin',(0.,4.,0.));
#194=CARTESIAN_POINT('',(155.506406460551,6.66133814775094E-15,0.));
#195=CARTESIAN_POINT('Origin',(0.,0.,0.));
#196=CARTESIAN_POINT('Origin',(147.65,0.,0.));
#197=CARTESIAN_POINT('',(147.65,-5.1152699322924E-32,0.));
#198=CARTESIAN_POINT('Origin',(0.,0.,0.));
#199=CARTESIAN_POINT('Origin',(0.,47.,0.));
#200=CARTESIAN_POINT('',(147.65,94.,0.));
#201=CARTESIAN_POINT('Origin',(0.,94.,0.));
#202=CARTESIAN_POINT('Origin',(0.,94.,0.));
#203=CARTESIAN_POINT('',(145.65,96.,0.));
#204=CARTESIAN_POINT('Origin',(0.,96.,0.));
#205=CARTESIAN_POINT('Origin',(0.,96.,0.));
#206=UNCERTAINTY_MEASURE_WITH_UNIT(LENGTH_MEASURE(0.01),#210,
'DISTANCE_ACCURACY_VALUE',
'Maximum model space distance between geometric entities at asserted c
onnectivities');
#207=UNCERTAINTY_MEASURE_WITH_UNIT(LENGTH_MEASURE(1.E-6),#210,
'DISTANCE_ACCURACY_VALUE',
'Maximum model space distance between geometric entities at asserted c
onnectivities');
#208=(
GEOMETRIC_REPRESENTATION_CONTEXT(3)
GLOBAL_UNCERTAINTY_ASSIGNED_CONTEXT((#206))
GLOBAL_UNIT_ASSIGNED_CONTEXT((#210,#213,#211))
REPRESENTATION_CONTEXT('','3D')
);
#209=(
GEOMETRIC_REPRESENTATION_CONTEXT(3)
GLOBAL_UNCERTAINTY_ASSIGNED_CONTEXT((#207))
GLOBAL_UNIT_ASSIGNED_CONTEXT((#210,#213,#211))
REPRESENTATION_CONTEXT('','3D')
);
#210=(
LENGTH_UNIT()
NAMED_UNIT(*)
SI_UNIT(.MILLI.,.METRE.)
);
#211=(
NAMED_UNIT(*)
SI_UNIT($,.STERADIAN.)
SOLID_ANGLE_UNIT()
);
#212=DIMENSIONAL_EXPONENTS(0.,0.,0.,0.,0.,0.,0.);
#213=(
CONVERSION_BASED_UNIT('degree',#215)
NAMED_UNIT(#212)
PLANE_ANGLE_UNIT()
);
#214=(
NAMED_UNIT(*)
PLANE_ANGLE_UNIT()
SI_UNIT($,.RADIAN.)
);
#215=PLANE_ANGLE_MEASURE_WITH_UNIT(PLANE_ANGLE_MEASURE(0.01745329252),#214);
#216=SHAPE_DEFINITION_REPRESENTATION(#217,#218);
#217=PRODUCT_DEFINITION_SHAPE('',$,#220);
#218=SHAPE_REPRESENTATION('',(#117),#208);
#219=PRODUCT_DEFINITION_CONTEXT('part definition',#224,'design');
#220=PRODUCT_DEFINITION('777820 KG2000M Muffenstopfen DN_OD 315',
'777820 KG2000M Muffenstopfen DN_OD 315',#221,#219);
#221=PRODUCT_DEFINITION_FORMATION('',$,#226);
#222=PRODUCT_RELATED_PRODUCT_CATEGORY(
'777820 KG2000M Muffenstopfen DN_OD 315',
'777820 KG2000M Muffenstopfen DN_OD 315',(#226));
#223=APPLICATION_PROTOCOL_DEFINITION('international standard',
'automotive_design',2009,#224);
#224=APPLICATION_CONTEXT(
'Core Data for Automotive Mechanical Design Process');
#225=PRODUCT_CONTEXT('part definition',#224,'mechanical');
#226=PRODUCT('777820 KG2000M Muffenstopfen DN_OD 315',
'777820 KG2000M Muffenstopfen DN_OD 315',$,(#225));
#227=PRESENTATION_STYLE_ASSIGNMENT((#228));
#228=SURFACE_STYLE_USAGE(.BOTH.,#229);
#229=SURFACE_SIDE_STYLE('',(#230));
#230=SURFACE_STYLE_FILL_AREA(#231);
#231=FILL_AREA_STYLE('',(#232));
#232=FILL_AREA_STYLE_COLOUR('',#233);
#233=COLOUR_RGB('',0.749019607843137,0.749019607843137,0.749019607843137);
ENDSEC;
END-ISO-10303-21;
