ISO-10303-21;
HEADER;
/* Generated by software containing ST-Developer
 * from STEP Tools, Inc. (www.steptools.com) 
 */

FILE_DESCRIPTION(
/* description */ (''),
/* implementation_level */ '2;1');

FILE_NAME(
/* name */ 
'Y:\\Stammdaten\\Zeichnungen.ext\\In Bearbeitung\\Steigrohre\\660650.s
tp',
/* time_stamp */ '2023-06-27T11:31:50+02:00',
/* author */ ('corinna'),
/* organization */ (''),
/* preprocessor_version */ 'ST-DEVELOPER v18',
/* originating_system */ 'Autodesk Inventor 2020',
/* authorisation */ '');

FILE_SCHEMA (('AUTOMOTIVE_DESIGN { 1 0 10303 214 3 1 1 }'));
ENDSEC;

DATA;
#10=MECHANICAL_DESIGN_GEOMETRIC_PRESENTATION_REPRESENTATION('',(#13),#176);
#11=SHAPE_REPRESENTATION_RELATIONSHIP('SRR','None',#183,#12);
#12=ADVANCED_BREP_SHAPE_REPRESENTATION('',(#14),#175);
#13=STYLED_ITEM('',(#192),#14);
#14=MANIFOLD_SOLID_BREP('Volumenk\X\F6rper1',#89);
#15=FACE_BOUND('',#29,.T.);
#16=FACE_BOUND('',#32,.T.);
#17=PLANE('',#116);
#18=PLANE('',#120);
#19=CYLINDRICAL_SURFACE('',#113,200.);
#20=CYLINDRICAL_SURFACE('',#118,190.2);
#21=FACE_OUTER_BOUND('',#26,.T.);
#22=FACE_OUTER_BOUND('',#27,.T.);
#23=FACE_OUTER_BOUND('',#28,.T.);
#24=FACE_OUTER_BOUND('',#30,.T.);
#25=FACE_OUTER_BOUND('',#31,.T.);
#26=EDGE_LOOP('',(#63,#64,#65,#66,#67));
#27=EDGE_LOOP('',(#68,#69,#70,#71,#72,#73));
#28=EDGE_LOOP('',(#74));
#29=EDGE_LOOP('',(#75));
#30=EDGE_LOOP('',(#76,#77,#78,#79));
#31=EDGE_LOOP('',(#80,#81));
#32=EDGE_LOOP('',(#82));
#33=LINE('',#157,#36);
#34=LINE('',#164,#37);
#35=LINE('',#171,#38);
#36=VECTOR('',#129,198.392304845413);
#37=VECTOR('',#138,200.);
#38=VECTOR('',#147,190.2);
#39=CIRCLE('',#110,200.);
#40=CIRCLE('',#111,200.);
#41=CIRCLE('',#112,196.784609690827);
#42=CIRCLE('',#114,200.);
#43=CIRCLE('',#115,200.);
#44=CIRCLE('',#117,190.2);
#45=CIRCLE('',#119,190.2);
#46=VERTEX_POINT('',#152);
#47=VERTEX_POINT('',#153);
#48=VERTEX_POINT('',#156);
#49=VERTEX_POINT('',#160);
#50=VERTEX_POINT('',#161);
#51=VERTEX_POINT('',#166);
#52=VERTEX_POINT('',#169);
#53=EDGE_CURVE('',#46,#47,#39,.T.);
#54=EDGE_CURVE('',#47,#46,#40,.T.);
#55=EDGE_CURVE('',#46,#48,#33,.T.);
#56=EDGE_CURVE('',#48,#48,#41,.T.);
#57=EDGE_CURVE('',#49,#50,#42,.T.);
#58=EDGE_CURVE('',#50,#49,#43,.T.);
#59=EDGE_CURVE('',#50,#47,#34,.T.);
#60=EDGE_CURVE('',#51,#51,#44,.T.);
#61=EDGE_CURVE('',#52,#52,#45,.T.);
#62=EDGE_CURVE('',#52,#51,#35,.T.);
#63=ORIENTED_EDGE('',*,*,#53,.T.);
#64=ORIENTED_EDGE('',*,*,#54,.T.);
#65=ORIENTED_EDGE('',*,*,#55,.T.);
#66=ORIENTED_EDGE('',*,*,#56,.T.);
#67=ORIENTED_EDGE('',*,*,#55,.F.);
#68=ORIENTED_EDGE('',*,*,#57,.F.);
#69=ORIENTED_EDGE('',*,*,#58,.F.);
#70=ORIENTED_EDGE('',*,*,#59,.T.);
#71=ORIENTED_EDGE('',*,*,#53,.F.);
#72=ORIENTED_EDGE('',*,*,#54,.F.);
#73=ORIENTED_EDGE('',*,*,#59,.F.);
#74=ORIENTED_EDGE('',*,*,#56,.F.);
#75=ORIENTED_EDGE('',*,*,#60,.F.);
#76=ORIENTED_EDGE('',*,*,#61,.F.);
#77=ORIENTED_EDGE('',*,*,#62,.T.);
#78=ORIENTED_EDGE('',*,*,#60,.T.);
#79=ORIENTED_EDGE('',*,*,#62,.F.);
#80=ORIENTED_EDGE('',*,*,#57,.T.);
#81=ORIENTED_EDGE('',*,*,#58,.T.);
#82=ORIENTED_EDGE('',*,*,#61,.T.);
#83=CONICAL_SURFACE('',#109,198.392304845413,0.261799387799149);
#84=ADVANCED_FACE('',(#21),#83,.T.);
#85=ADVANCED_FACE('',(#22),#19,.T.);
#86=ADVANCED_FACE('',(#23,#15),#17,.F.);
#87=ADVANCED_FACE('',(#24),#20,.F.);
#88=ADVANCED_FACE('',(#25,#16),#18,.T.);
#89=CLOSED_SHELL('',(#84,#85,#86,#87,#88));
#90=DERIVED_UNIT_ELEMENT(#92,1.);
#91=DERIVED_UNIT_ELEMENT(#178,3.);
#92=(
MASS_UNIT()
NAMED_UNIT(*)
SI_UNIT($,.GRAM.)
);
#93=DERIVED_UNIT((#90,#91));
#94=MEASURE_REPRESENTATION_ITEM('density measure',
POSITIVE_RATIO_MEASURE(1.),#93);
#95=PROPERTY_DEFINITION_REPRESENTATION(#100,#97);
#96=PROPERTY_DEFINITION_REPRESENTATION(#101,#98);
#97=REPRESENTATION('material name',(#99),#175);
#98=REPRESENTATION('density',(#94),#175);
#99=DESCRIPTIVE_REPRESENTATION_ITEM('Generisch','Generisch');
#100=PROPERTY_DEFINITION('material property','material name',#185);
#101=PROPERTY_DEFINITION('material property','density of part',#185);
#102=DATE_TIME_ROLE('creation_date');
#103=APPLIED_DATE_AND_TIME_ASSIGNMENT(#104,#102,(#185));
#104=DATE_AND_TIME(#105,#106);
#105=CALENDAR_DATE(2023,26,6);
#106=LOCAL_TIME(8,56,8.,#107);
#107=COORDINATED_UNIVERSAL_TIME_OFFSET(0,0,.BEHIND.);
#108=AXIS2_PLACEMENT_3D('placement',#150,#121,#122);
#109=AXIS2_PLACEMENT_3D('',#151,#123,#124);
#110=AXIS2_PLACEMENT_3D('',#154,#125,#126);
#111=AXIS2_PLACEMENT_3D('',#155,#127,#128);
#112=AXIS2_PLACEMENT_3D('',#158,#130,#131);
#113=AXIS2_PLACEMENT_3D('',#159,#132,#133);
#114=AXIS2_PLACEMENT_3D('',#162,#134,#135);
#115=AXIS2_PLACEMENT_3D('',#163,#136,#137);
#116=AXIS2_PLACEMENT_3D('',#165,#139,#140);
#117=AXIS2_PLACEMENT_3D('',#167,#141,#142);
#118=AXIS2_PLACEMENT_3D('',#168,#143,#144);
#119=AXIS2_PLACEMENT_3D('',#170,#145,#146);
#120=AXIS2_PLACEMENT_3D('',#172,#148,#149);
#121=DIRECTION('axis',(0.,0.,1.));
#122=DIRECTION('refdir',(1.,0.,0.));
#123=DIRECTION('center_axis',(0.,1.,0.));
#124=DIRECTION('ref_axis',(1.,0.,0.));
#125=DIRECTION('center_axis',(0.,-1.,0.));
#126=DIRECTION('ref_axis',(1.,0.,0.));
#127=DIRECTION('center_axis',(0.,-1.,0.));
#128=DIRECTION('ref_axis',(1.,0.,0.));
#129=DIRECTION('',(0.25881904510252,-0.965925826289069,-3.16961915143176E-17));
#130=DIRECTION('center_axis',(0.,1.,0.));
#131=DIRECTION('ref_axis',(1.,0.,0.));
#132=DIRECTION('center_axis',(0.,1.,0.));
#133=DIRECTION('ref_axis',(-1.,0.,0.));
#134=DIRECTION('center_axis',(0.,1.,0.));
#135=DIRECTION('ref_axis',(-1.,0.,0.));
#136=DIRECTION('center_axis',(0.,1.,0.));
#137=DIRECTION('ref_axis',(-1.,0.,0.));
#138=DIRECTION('',(0.,-1.,0.));
#139=DIRECTION('center_axis',(0.,1.,0.));
#140=DIRECTION('ref_axis',(0.,0.,1.));
#141=DIRECTION('center_axis',(0.,-1.,0.));
#142=DIRECTION('ref_axis',(1.,0.,0.));
#143=DIRECTION('center_axis',(0.,1.,0.));
#144=DIRECTION('ref_axis',(1.,0.,0.));
#145=DIRECTION('center_axis',(0.,-1.,0.));
#146=DIRECTION('ref_axis',(1.,0.,0.));
#147=DIRECTION('',(0.,-1.,0.));
#148=DIRECTION('center_axis',(0.,1.,0.));
#149=DIRECTION('ref_axis',(0.,0.,1.));
#150=CARTESIAN_POINT('',(0.,0.,0.));
#151=CARTESIAN_POINT('Origin',(0.,6.,0.));
#152=CARTESIAN_POINT('',(-200.,12.,-2.44929359829471E-14));
#153=CARTESIAN_POINT('',(200.,12.,-2.44929359829471E-14));
#154=CARTESIAN_POINT('Origin',(0.,12.,0.));
#155=CARTESIAN_POINT('Origin',(0.,12.,0.));
#156=CARTESIAN_POINT('',(-196.784609690827,0.,2.40991642379332E-14));
#157=CARTESIAN_POINT('',(-198.392304845413,6.,2.42960501104401E-14));
#158=CARTESIAN_POINT('Origin',(0.,0.,0.));
#159=CARTESIAN_POINT('Origin',(0.,0.,0.));
#160=CARTESIAN_POINT('',(-200.,2000.,0.));
#161=CARTESIAN_POINT('',(200.,2000.,-2.44929359829471E-14));
#162=CARTESIAN_POINT('Origin',(0.,2000.,0.));
#163=CARTESIAN_POINT('Origin',(0.,2000.,0.));
#164=CARTESIAN_POINT('',(200.,0.,-2.44929359829471E-14));
#165=CARTESIAN_POINT('Origin',(0.,0.,0.));
#166=CARTESIAN_POINT('',(-190.2,0.,2.32927821197827E-14));
#167=CARTESIAN_POINT('Origin',(0.,0.,0.));
#168=CARTESIAN_POINT('Origin',(0.,0.,0.));
#169=CARTESIAN_POINT('',(-190.2,2000.,2.32927821197827E-14));
#170=CARTESIAN_POINT('Origin',(0.,2000.,0.));
#171=CARTESIAN_POINT('',(-190.2,0.,2.32927821197827E-14));
#172=CARTESIAN_POINT('Origin',(0.,2000.,0.));
#173=UNCERTAINTY_MEASURE_WITH_UNIT(LENGTH_MEASURE(0.01),#177,
'DISTANCE_ACCURACY_VALUE',
'Maximum model space distance between geometric entities at asserted c
onnectivities');
#174=UNCERTAINTY_MEASURE_WITH_UNIT(LENGTH_MEASURE(0.01),#177,
'DISTANCE_ACCURACY_VALUE',
'Maximum model space distance between geometric entities at asserted c
onnectivities');
#175=(
GEOMETRIC_REPRESENTATION_CONTEXT(3)
GLOBAL_UNCERTAINTY_ASSIGNED_CONTEXT((#173))
GLOBAL_UNIT_ASSIGNED_CONTEXT((#177,#179,#180))
REPRESENTATION_CONTEXT('','3D')
);
#176=(
GEOMETRIC_REPRESENTATION_CONTEXT(3)
GLOBAL_UNCERTAINTY_ASSIGNED_CONTEXT((#174))
GLOBAL_UNIT_ASSIGNED_CONTEXT((#177,#179,#180))
REPRESENTATION_CONTEXT('','3D')
);
#177=(
LENGTH_UNIT()
NAMED_UNIT(*)
SI_UNIT(.MILLI.,.METRE.)
);
#178=(
LENGTH_UNIT()
NAMED_UNIT(*)
SI_UNIT(.CENTI.,.METRE.)
);
#179=(
NAMED_UNIT(*)
PLANE_ANGLE_UNIT()
SI_UNIT($,.RADIAN.)
);
#180=(
NAMED_UNIT(*)
SI_UNIT($,.STERADIAN.)
SOLID_ANGLE_UNIT()
);
#181=SHAPE_DEFINITION_REPRESENTATION(#182,#183);
#182=PRODUCT_DEFINITION_SHAPE('',$,#185);
#183=SHAPE_REPRESENTATION('',(#108),#175);
#184=PRODUCT_DEFINITION_CONTEXT('part definition',#189,'design');
#185=PRODUCT_DEFINITION('660650','660650',#186,#184);
#186=PRODUCT_DEFINITION_FORMATION('',$,#191);
#187=PRODUCT_RELATED_PRODUCT_CATEGORY('660650','660650',(#191));
#188=APPLICATION_PROTOCOL_DEFINITION('international standard',
'automotive_design',2009,#189);
#189=APPLICATION_CONTEXT(
'Core Data for Automotive Mechanical Design Process');
#190=PRODUCT_CONTEXT('part definition',#189,'mechanical');
#191=PRODUCT('660650','660650',$,(#190));
#192=PRESENTATION_STYLE_ASSIGNMENT((#193));
#193=SURFACE_STYLE_USAGE(.BOTH.,#196);
#194=SURFACE_STYLE_RENDERING_WITH_PROPERTIES($,#200,(#195));
#195=SURFACE_STYLE_TRANSPARENT(0.);
#196=SURFACE_SIDE_STYLE('',(#197,#194));
#197=SURFACE_STYLE_FILL_AREA(#198);
#198=FILL_AREA_STYLE('',(#199));
#199=FILL_AREA_STYLE_COLOUR('',#200);
#200=COLOUR_RGB('',0.749019607843137,0.749019607843137,0.749019607843137);
ENDSEC;
END-ISO-10303-21;
