ISO-10303-21;
HEADER;
/* Generated by software containing ST-Developer
 * from STEP Tools, Inc. (www.steptools.com) 
 */

FILE_DESCRIPTION(
/* description */ (''),
/* implementation_level */ '2;1');

FILE_NAME(
/* name */ '660260z.stp',
/* time_stamp */ '2024-10-10T07:17:52+02:00',
/* author */ ('corinna'),
/* organization */ (''),
/* preprocessor_version */ 'ST-DEVELOPER v20',
/* originating_system */ 'Autodesk Inventor 2024',
/* authorisation */ '');

FILE_SCHEMA (('AUTOMOTIVE_DESIGN { 1 0 10303 214 3 1 1 }'));
ENDSEC;

DATA;
#10=MECHANICAL_DESIGN_GEOMETRIC_PRESENTATION_REPRESENTATION('',(#13),#595);
#11=SHAPE_REPRESENTATION_RELATIONSHIP('SRR','None',#602,#12);
#12=ADVANCED_BREP_SHAPE_REPRESENTATION('',(#14),#594);
#13=STYLED_ITEM('',(#611),#14);
#14=MANIFOLD_SOLID_BREP('Volumenk\X\F6rper1',#349);
#15=CONICAL_SURFACE('',#397,176.,0.0855052936782048);
#16=CIRCLE('',#393,170.);
#17=CIRCLE('',#394,5.);
#18=CIRCLE('',#395,175.);
#19=CIRCLE('',#398,176.);
#20=TOROIDAL_SURFACE('',#392,175.,5.);
#21=ELLIPSE('',#381,14.1421356237309,10.);
#22=ELLIPSE('',#382,14.1421356237309,10.);
#23=ELLIPSE('',#384,14.1421356237309,10.);
#24=ELLIPSE('',#386,14.1421356237309,10.);
#25=CYLINDRICAL_SURFACE('',#380,10.);
#26=CYLINDRICAL_SURFACE('',#383,10.);
#27=CYLINDRICAL_SURFACE('',#385,10.);
#28=CYLINDRICAL_SURFACE('',#387,10.);
#29=FACE_BOUND('',#61,.T.);
#30=FACE_BOUND('',#72,.T.);
#31=FACE_BOUND('',#75,.T.);
#32=FACE_OUTER_BOUND('',#53,.T.);
#33=FACE_OUTER_BOUND('',#54,.T.);
#34=FACE_OUTER_BOUND('',#55,.T.);
#35=FACE_OUTER_BOUND('',#56,.T.);
#36=FACE_OUTER_BOUND('',#57,.T.);
#37=FACE_OUTER_BOUND('',#58,.T.);
#38=FACE_OUTER_BOUND('',#59,.T.);
#39=FACE_OUTER_BOUND('',#60,.T.);
#40=FACE_OUTER_BOUND('',#62,.T.);
#41=FACE_OUTER_BOUND('',#63,.T.);
#42=FACE_OUTER_BOUND('',#64,.T.);
#43=FACE_OUTER_BOUND('',#65,.T.);
#44=FACE_OUTER_BOUND('',#66,.T.);
#45=FACE_OUTER_BOUND('',#67,.T.);
#46=FACE_OUTER_BOUND('',#68,.T.);
#47=FACE_OUTER_BOUND('',#69,.T.);
#48=FACE_OUTER_BOUND('',#70,.T.);
#49=FACE_OUTER_BOUND('',#71,.T.);
#50=FACE_OUTER_BOUND('',#73,.T.);
#51=FACE_OUTER_BOUND('',#74,.T.);
#52=FACE_OUTER_BOUND('',#76,.T.);
#53=EDGE_LOOP('',(#223,#224,#225,#226));
#54=EDGE_LOOP('',(#227,#228,#229,#230));
#55=EDGE_LOOP('',(#231,#232,#233,#234));
#56=EDGE_LOOP('',(#235,#236,#237,#238));
#57=EDGE_LOOP('',(#239,#240,#241,#242));
#58=EDGE_LOOP('',(#243,#244,#245,#246));
#59=EDGE_LOOP('',(#247,#248,#249,#250));
#60=EDGE_LOOP('',(#251,#252,#253,#254));
#61=EDGE_LOOP('',(#255,#256,#257,#258));
#62=EDGE_LOOP('',(#259,#260,#261,#262));
#63=EDGE_LOOP('',(#263,#264,#265,#266));
#64=EDGE_LOOP('',(#267,#268,#269,#270));
#65=EDGE_LOOP('',(#271,#272,#273,#274));
#66=EDGE_LOOP('',(#275,#276,#277,#278));
#67=EDGE_LOOP('',(#279,#280,#281,#282));
#68=EDGE_LOOP('',(#283,#284,#285,#286));
#69=EDGE_LOOP('',(#287,#288,#289,#290));
#70=EDGE_LOOP('',(#291,#292,#293,#294));
#71=EDGE_LOOP('',(#295,#296,#297,#298));
#72=EDGE_LOOP('',(#299));
#73=EDGE_LOOP('',(#300,#301,#302,#303));
#74=EDGE_LOOP('',(#304,#305,#306,#307));
#75=EDGE_LOOP('',(#308));
#76=EDGE_LOOP('',(#309,#310,#311,#312));
#77=LINE('',#502,#114);
#78=LINE('',#504,#115);
#79=LINE('',#506,#116);
#80=LINE('',#507,#117);
#81=LINE('',#510,#118);
#82=LINE('',#512,#119);
#83=LINE('',#513,#120);
#84=LINE('',#517,#121);
#85=LINE('',#518,#122);
#86=LINE('',#519,#123);
#87=LINE('',#522,#124);
#88=LINE('',#524,#125);
#89=LINE('',#525,#126);
#90=LINE('',#528,#127);
#91=LINE('',#529,#128);
#92=LINE('',#531,#129);
#93=LINE('',#532,#130);
#94=LINE('',#535,#131);
#95=LINE('',#536,#132);
#96=LINE('',#540,#133);
#97=LINE('',#542,#134);
#98=LINE('',#544,#135);
#99=LINE('',#545,#136);
#100=LINE('',#549,#137);
#101=LINE('',#554,#138);
#102=LINE('',#559,#139);
#103=LINE('',#561,#140);
#104=LINE('',#564,#141);
#105=LINE('',#566,#142);
#106=LINE('',#567,#143);
#107=LINE('',#570,#144);
#108=LINE('',#571,#145);
#109=LINE('',#574,#146);
#110=LINE('',#575,#147);
#111=LINE('',#577,#148);
#112=LINE('',#588,#149);
#113=LINE('',#590,#150);
#114=VECTOR('',#405,10.);
#115=VECTOR('',#406,10.);
#116=VECTOR('',#407,10.);
#117=VECTOR('',#408,10.);
#118=VECTOR('',#411,10.);
#119=VECTOR('',#412,10.);
#120=VECTOR('',#413,10.);
#121=VECTOR('',#416,10.);
#122=VECTOR('',#417,10.);
#123=VECTOR('',#418,10.);
#124=VECTOR('',#421,10.);
#125=VECTOR('',#422,10.);
#126=VECTOR('',#423,10.);
#127=VECTOR('',#426,10.);
#128=VECTOR('',#427,10.);
#129=VECTOR('',#430,10.);
#130=VECTOR('',#431,10.);
#131=VECTOR('',#434,10.);
#132=VECTOR('',#435,10.);
#133=VECTOR('',#438,10.);
#134=VECTOR('',#439,10.);
#135=VECTOR('',#440,10.);
#136=VECTOR('',#441,10.);
#137=VECTOR('',#444,10.);
#138=VECTOR('',#451,10.);
#139=VECTOR('',#458,10.);
#140=VECTOR('',#461,10.);
#141=VECTOR('',#464,10.);
#142=VECTOR('',#465,10.);
#143=VECTOR('',#466,10.);
#144=VECTOR('',#469,10.);
#145=VECTOR('',#470,10.);
#146=VECTOR('',#473,10.);
#147=VECTOR('',#474,10.);
#148=VECTOR('',#477,10.);
#149=VECTOR('',#492,176.);
#150=VECTOR('',#495,10.);
#151=VERTEX_POINT('',#500);
#152=VERTEX_POINT('',#501);
#153=VERTEX_POINT('',#503);
#154=VERTEX_POINT('',#505);
#155=VERTEX_POINT('',#509);
#156=VERTEX_POINT('',#511);
#157=VERTEX_POINT('',#515);
#158=VERTEX_POINT('',#516);
#159=VERTEX_POINT('',#521);
#160=VERTEX_POINT('',#523);
#161=VERTEX_POINT('',#527);
#162=VERTEX_POINT('',#534);
#163=VERTEX_POINT('',#538);
#164=VERTEX_POINT('',#539);
#165=VERTEX_POINT('',#541);
#166=VERTEX_POINT('',#543);
#167=VERTEX_POINT('',#547);
#168=VERTEX_POINT('',#548);
#169=VERTEX_POINT('',#553);
#170=VERTEX_POINT('',#557);
#171=VERTEX_POINT('',#563);
#172=VERTEX_POINT('',#565);
#173=VERTEX_POINT('',#569);
#174=VERTEX_POINT('',#573);
#175=VERTEX_POINT('',#579);
#176=VERTEX_POINT('',#581);
#177=VERTEX_POINT('',#586);
#178=EDGE_CURVE('',#151,#152,#77,.T.);
#179=EDGE_CURVE('',#153,#151,#78,.T.);
#180=EDGE_CURVE('',#153,#154,#79,.T.);
#181=EDGE_CURVE('',#152,#154,#80,.T.);
#182=EDGE_CURVE('',#155,#153,#81,.T.);
#183=EDGE_CURVE('',#155,#156,#82,.T.);
#184=EDGE_CURVE('',#154,#156,#83,.T.);
#185=EDGE_CURVE('',#157,#158,#84,.T.);
#186=EDGE_CURVE('',#156,#157,#85,.T.);
#187=EDGE_CURVE('',#158,#155,#86,.T.);
#188=EDGE_CURVE('',#159,#154,#87,.T.);
#189=EDGE_CURVE('',#160,#159,#88,.T.);
#190=EDGE_CURVE('',#160,#152,#89,.T.);
#191=EDGE_CURVE('',#161,#156,#90,.T.);
#192=EDGE_CURVE('',#159,#161,#91,.T.);
#193=EDGE_CURVE('',#157,#152,#92,.T.);
#194=EDGE_CURVE('',#151,#158,#93,.T.);
#195=EDGE_CURVE('',#162,#157,#94,.T.);
#196=EDGE_CURVE('',#161,#162,#95,.T.);
#197=EDGE_CURVE('',#163,#164,#96,.T.);
#198=EDGE_CURVE('',#165,#163,#97,.T.);
#199=EDGE_CURVE('',#166,#165,#98,.T.);
#200=EDGE_CURVE('',#164,#166,#99,.T.);
#201=EDGE_CURVE('',#167,#168,#100,.T.);
#202=EDGE_CURVE('',#168,#163,#21,.T.);
#203=EDGE_CURVE('',#167,#164,#22,.T.);
#204=EDGE_CURVE('',#168,#169,#101,.T.);
#205=EDGE_CURVE('',#169,#165,#23,.T.);
#206=EDGE_CURVE('',#166,#170,#24,.T.);
#207=EDGE_CURVE('',#170,#167,#102,.T.);
#208=EDGE_CURVE('',#169,#170,#103,.T.);
#209=EDGE_CURVE('',#168,#171,#104,.F.);
#210=EDGE_CURVE('',#171,#172,#105,.T.);
#211=EDGE_CURVE('',#169,#172,#106,.F.);
#212=EDGE_CURVE('',#167,#173,#107,.F.);
#213=EDGE_CURVE('',#173,#171,#108,.T.);
#214=EDGE_CURVE('',#172,#174,#109,.T.);
#215=EDGE_CURVE('',#174,#170,#110,.F.);
#216=EDGE_CURVE('',#174,#173,#111,.T.);
#217=EDGE_CURVE('',#175,#175,#16,.T.);
#218=EDGE_CURVE('',#175,#176,#17,.T.);
#219=EDGE_CURVE('',#176,#176,#18,.T.);
#220=EDGE_CURVE('',#177,#177,#19,.T.);
#221=EDGE_CURVE('',#177,#175,#112,.T.);
#222=EDGE_CURVE('',#162,#160,#113,.T.);
#223=ORIENTED_EDGE('',*,*,#178,.F.);
#224=ORIENTED_EDGE('',*,*,#179,.F.);
#225=ORIENTED_EDGE('',*,*,#180,.T.);
#226=ORIENTED_EDGE('',*,*,#181,.F.);
#227=ORIENTED_EDGE('',*,*,#180,.F.);
#228=ORIENTED_EDGE('',*,*,#182,.F.);
#229=ORIENTED_EDGE('',*,*,#183,.T.);
#230=ORIENTED_EDGE('',*,*,#184,.F.);
#231=ORIENTED_EDGE('',*,*,#185,.F.);
#232=ORIENTED_EDGE('',*,*,#186,.F.);
#233=ORIENTED_EDGE('',*,*,#183,.F.);
#234=ORIENTED_EDGE('',*,*,#187,.F.);
#235=ORIENTED_EDGE('',*,*,#181,.T.);
#236=ORIENTED_EDGE('',*,*,#188,.F.);
#237=ORIENTED_EDGE('',*,*,#189,.F.);
#238=ORIENTED_EDGE('',*,*,#190,.T.);
#239=ORIENTED_EDGE('',*,*,#184,.T.);
#240=ORIENTED_EDGE('',*,*,#191,.F.);
#241=ORIENTED_EDGE('',*,*,#192,.F.);
#242=ORIENTED_EDGE('',*,*,#188,.T.);
#243=ORIENTED_EDGE('',*,*,#178,.T.);
#244=ORIENTED_EDGE('',*,*,#193,.F.);
#245=ORIENTED_EDGE('',*,*,#185,.T.);
#246=ORIENTED_EDGE('',*,*,#194,.F.);
#247=ORIENTED_EDGE('',*,*,#186,.T.);
#248=ORIENTED_EDGE('',*,*,#195,.F.);
#249=ORIENTED_EDGE('',*,*,#196,.F.);
#250=ORIENTED_EDGE('',*,*,#191,.T.);
#251=ORIENTED_EDGE('',*,*,#179,.T.);
#252=ORIENTED_EDGE('',*,*,#194,.T.);
#253=ORIENTED_EDGE('',*,*,#187,.T.);
#254=ORIENTED_EDGE('',*,*,#182,.T.);
#255=ORIENTED_EDGE('',*,*,#197,.F.);
#256=ORIENTED_EDGE('',*,*,#198,.F.);
#257=ORIENTED_EDGE('',*,*,#199,.F.);
#258=ORIENTED_EDGE('',*,*,#200,.F.);
#259=ORIENTED_EDGE('',*,*,#201,.T.);
#260=ORIENTED_EDGE('',*,*,#202,.T.);
#261=ORIENTED_EDGE('',*,*,#197,.T.);
#262=ORIENTED_EDGE('',*,*,#203,.F.);
#263=ORIENTED_EDGE('',*,*,#204,.T.);
#264=ORIENTED_EDGE('',*,*,#205,.T.);
#265=ORIENTED_EDGE('',*,*,#198,.T.);
#266=ORIENTED_EDGE('',*,*,#202,.F.);
#267=ORIENTED_EDGE('',*,*,#200,.T.);
#268=ORIENTED_EDGE('',*,*,#206,.T.);
#269=ORIENTED_EDGE('',*,*,#207,.T.);
#270=ORIENTED_EDGE('',*,*,#203,.T.);
#271=ORIENTED_EDGE('',*,*,#208,.T.);
#272=ORIENTED_EDGE('',*,*,#206,.F.);
#273=ORIENTED_EDGE('',*,*,#199,.T.);
#274=ORIENTED_EDGE('',*,*,#205,.F.);
#275=ORIENTED_EDGE('',*,*,#204,.F.);
#276=ORIENTED_EDGE('',*,*,#209,.T.);
#277=ORIENTED_EDGE('',*,*,#210,.T.);
#278=ORIENTED_EDGE('',*,*,#211,.F.);
#279=ORIENTED_EDGE('',*,*,#201,.F.);
#280=ORIENTED_EDGE('',*,*,#212,.T.);
#281=ORIENTED_EDGE('',*,*,#213,.T.);
#282=ORIENTED_EDGE('',*,*,#209,.F.);
#283=ORIENTED_EDGE('',*,*,#208,.F.);
#284=ORIENTED_EDGE('',*,*,#211,.T.);
#285=ORIENTED_EDGE('',*,*,#214,.T.);
#286=ORIENTED_EDGE('',*,*,#215,.T.);
#287=ORIENTED_EDGE('',*,*,#207,.F.);
#288=ORIENTED_EDGE('',*,*,#215,.F.);
#289=ORIENTED_EDGE('',*,*,#216,.T.);
#290=ORIENTED_EDGE('',*,*,#212,.F.);
#291=ORIENTED_EDGE('',*,*,#217,.T.);
#292=ORIENTED_EDGE('',*,*,#218,.T.);
#293=ORIENTED_EDGE('',*,*,#219,.T.);
#294=ORIENTED_EDGE('',*,*,#218,.F.);
#295=ORIENTED_EDGE('',*,*,#214,.F.);
#296=ORIENTED_EDGE('',*,*,#210,.F.);
#297=ORIENTED_EDGE('',*,*,#213,.F.);
#298=ORIENTED_EDGE('',*,*,#216,.F.);
#299=ORIENTED_EDGE('',*,*,#219,.F.);
#300=ORIENTED_EDGE('',*,*,#220,.F.);
#301=ORIENTED_EDGE('',*,*,#221,.T.);
#302=ORIENTED_EDGE('',*,*,#217,.F.);
#303=ORIENTED_EDGE('',*,*,#221,.F.);
#304=ORIENTED_EDGE('',*,*,#196,.T.);
#305=ORIENTED_EDGE('',*,*,#222,.T.);
#306=ORIENTED_EDGE('',*,*,#189,.T.);
#307=ORIENTED_EDGE('',*,*,#192,.T.);
#308=ORIENTED_EDGE('',*,*,#220,.T.);
#309=ORIENTED_EDGE('',*,*,#193,.T.);
#310=ORIENTED_EDGE('',*,*,#190,.F.);
#311=ORIENTED_EDGE('',*,*,#222,.F.);
#312=ORIENTED_EDGE('',*,*,#195,.T.);
#313=PLANE('',#372);
#314=PLANE('',#373);
#315=PLANE('',#374);
#316=PLANE('',#375);
#317=PLANE('',#376);
#318=PLANE('',#377);
#319=PLANE('',#378);
#320=PLANE('',#379);
#321=PLANE('',#388);
#322=PLANE('',#389);
#323=PLANE('',#390);
#324=PLANE('',#391);
#325=PLANE('',#396);
#326=PLANE('',#399);
#327=PLANE('',#400);
#328=ADVANCED_FACE('',(#32),#313,.F.);
#329=ADVANCED_FACE('',(#33),#314,.F.);
#330=ADVANCED_FACE('',(#34),#315,.F.);
#331=ADVANCED_FACE('',(#35),#316,.F.);
#332=ADVANCED_FACE('',(#36),#317,.F.);
#333=ADVANCED_FACE('',(#37),#318,.F.);
#334=ADVANCED_FACE('',(#38),#319,.F.);
#335=ADVANCED_FACE('',(#39,#29),#320,.T.);
#336=ADVANCED_FACE('',(#40),#25,.T.);
#337=ADVANCED_FACE('',(#41),#26,.T.);
#338=ADVANCED_FACE('',(#42),#27,.T.);
#339=ADVANCED_FACE('',(#43),#28,.T.);
#340=ADVANCED_FACE('',(#44),#321,.T.);
#341=ADVANCED_FACE('',(#45),#322,.T.);
#342=ADVANCED_FACE('',(#46),#323,.T.);
#343=ADVANCED_FACE('',(#47),#324,.T.);
#344=ADVANCED_FACE('',(#48),#20,.T.);
#345=ADVANCED_FACE('',(#49,#30),#325,.F.);
#346=ADVANCED_FACE('',(#50),#15,.F.);
#347=ADVANCED_FACE('',(#51,#31),#326,.F.);
#348=ADVANCED_FACE('',(#52),#327,.F.);
#349=CLOSED_SHELL('',(#328,#329,#330,#331,#332,#333,#334,#335,#336,#337,
#338,#339,#340,#341,#342,#343,#344,#345,#346,#347,#348));
#350=DERIVED_UNIT_ELEMENT(#353,1.);
#351=DERIVED_UNIT_ELEMENT(#597,-3.);
#352=DIMENSIONAL_EXPONENTS(0.,1.,0.,0.,0.,0.,0.);
#353=(
CONVERSION_BASED_UNIT('gram',#355)
MASS_UNIT()
NAMED_UNIT(#352)
);
#354=(
MASS_UNIT()
NAMED_UNIT(*)
SI_UNIT(.KILO.,.GRAM.)
);
#355=MASS_MEASURE_WITH_UNIT(MASS_MEASURE(0.001),#354);
#356=DERIVED_UNIT((#350,#351));
#357=MEASURE_REPRESENTATION_ITEM('density measure',
POSITIVE_RATIO_MEASURE(1.),#356);
#358=PROPERTY_DEFINITION_REPRESENTATION(#363,#360);
#359=PROPERTY_DEFINITION_REPRESENTATION(#364,#361);
#360=REPRESENTATION('material name',(#362),#594);
#361=REPRESENTATION('density',(#357),#594);
#362=DESCRIPTIVE_REPRESENTATION_ITEM('Generisch','Generisch');
#363=PROPERTY_DEFINITION('material property','material name',#604);
#364=PROPERTY_DEFINITION('material property','density of part',#604);
#365=DATE_TIME_ROLE('creation_date');
#366=APPLIED_DATE_AND_TIME_ASSIGNMENT(#367,#365,(#604));
#367=DATE_AND_TIME(#368,#369);
#368=CALENDAR_DATE(2023,31,8);
#369=LOCAL_TIME(0,0,0.,#370);
#370=COORDINATED_UNIVERSAL_TIME_OFFSET(0,0,.BEHIND.);
#371=AXIS2_PLACEMENT_3D('',#498,#401,#402);
#372=AXIS2_PLACEMENT_3D('',#499,#403,#404);
#373=AXIS2_PLACEMENT_3D('',#508,#409,#410);
#374=AXIS2_PLACEMENT_3D('',#514,#414,#415);
#375=AXIS2_PLACEMENT_3D('',#520,#419,#420);
#376=AXIS2_PLACEMENT_3D('',#526,#424,#425);
#377=AXIS2_PLACEMENT_3D('',#530,#428,#429);
#378=AXIS2_PLACEMENT_3D('',#533,#432,#433);
#379=AXIS2_PLACEMENT_3D('',#537,#436,#437);
#380=AXIS2_PLACEMENT_3D('',#546,#442,#443);
#381=AXIS2_PLACEMENT_3D('',#550,#445,#446);
#382=AXIS2_PLACEMENT_3D('',#551,#447,#448);
#383=AXIS2_PLACEMENT_3D('',#552,#449,#450);
#384=AXIS2_PLACEMENT_3D('',#555,#452,#453);
#385=AXIS2_PLACEMENT_3D('',#556,#454,#455);
#386=AXIS2_PLACEMENT_3D('',#558,#456,#457);
#387=AXIS2_PLACEMENT_3D('',#560,#459,#460);
#388=AXIS2_PLACEMENT_3D('',#562,#462,#463);
#389=AXIS2_PLACEMENT_3D('',#568,#467,#468);
#390=AXIS2_PLACEMENT_3D('',#572,#471,#472);
#391=AXIS2_PLACEMENT_3D('',#576,#475,#476);
#392=AXIS2_PLACEMENT_3D('',#578,#478,#479);
#393=AXIS2_PLACEMENT_3D('',#580,#480,#481);
#394=AXIS2_PLACEMENT_3D('',#582,#482,#483);
#395=AXIS2_PLACEMENT_3D('',#583,#484,#485);
#396=AXIS2_PLACEMENT_3D('',#584,#486,#487);
#397=AXIS2_PLACEMENT_3D('',#585,#488,#489);
#398=AXIS2_PLACEMENT_3D('',#587,#490,#491);
#399=AXIS2_PLACEMENT_3D('',#589,#493,#494);
#400=AXIS2_PLACEMENT_3D('',#591,#496,#497);
#401=DIRECTION('axis',(0.,0.,1.));
#402=DIRECTION('refdir',(1.,0.,0.));
#403=DIRECTION('center_axis',(1.29893408435324E-16,0.707106781186548,-0.707106781186548));
#404=DIRECTION('ref_axis',(1.29893408435324E-16,0.707106781186548,0.707106781186548));
#405=DIRECTION('',(0.577350269189626,-0.577350269189626,-0.577350269189626));
#406=DIRECTION('',(1.,-1.83697019872103E-16,0.));
#407=DIRECTION('',(-0.577350269189626,-0.577350269189626,-0.577350269189626));
#408=DIRECTION('',(-1.,-6.50689283800197E-17,-2.48765948252123E-16));
#409=DIRECTION('center_axis',(0.707106781186548,-8.65956056235493E-17,-0.707106781186548));
#410=DIRECTION('ref_axis',(0.707106781186548,-8.65956056235493E-17,0.707106781186548));
#411=DIRECTION('',(-1.22464679914735E-16,-1.,0.));
#412=DIRECTION('',(-0.577350269189626,0.577350269189626,-0.577350269189626));
#413=DIRECTION('',(-1.38836496874518E-16,1.,-2.61301176789254E-16));
#414=DIRECTION('center_axis',(-4.32978028117747E-17,-0.707106781186548,
-0.707106781186548));
#415=DIRECTION('ref_axis',(-4.32978028117747E-17,-0.707106781186548,0.707106781186548));
#416=DIRECTION('',(-0.577350269189626,-0.577350269189626,0.577350269189626));
#417=DIRECTION('',(1.,2.83598704404819E-16,-3.44831044362186E-16));
#418=DIRECTION('',(-1.,6.12323399573677E-17,0.));
#419=DIRECTION('center_axis',(-7.33204048884018E-17,0.999444906913904,0.0333148321901601));
#420=DIRECTION('ref_axis',(0.,-0.0333148321901601,0.999444906913904));
#421=DIRECTION('',(-0.0332963598648678,-0.0332963598648682,0.998890737187756));
#422=DIRECTION('',(-1.,-1.49587944370547E-16,0.));
#423=DIRECTION('',(0.0332963598648682,-0.0332963598648686,0.998890737187756));
#424=DIRECTION('center_axis',(0.999444906913904,1.47464634550831E-16,0.0333148321901593));
#425=DIRECTION('ref_axis',(0.0333148321901593,0.,-0.999444906913904));
#426=DIRECTION('',(-0.0332963598648682,0.033296359864869,0.998890737187756));
#427=DIRECTION('',(-7.47939721852737E-17,1.,0.));
#428=DIRECTION('center_axis',(-0.707106781186548,0.,-0.707106781186548));
#429=DIRECTION('ref_axis',(-0.707106781186548,0.,0.707106781186548));
#430=DIRECTION('',(2.85573941290079E-16,-1.,-2.85573941290079E-16));
#431=DIRECTION('',(0.,1.,0.));
#432=DIRECTION('center_axis',(2.94929269101661E-16,-0.999444906913904,0.0333148321901585));
#433=DIRECTION('ref_axis',(0.,-0.0333148321901585,-0.999444906913904));
#434=DIRECTION('',(0.0332963598648673,0.0332963598648686,0.998890737187756));
#435=DIRECTION('',(1.,0.,0.));
#436=DIRECTION('center_axis',(0.,0.,1.));
#437=DIRECTION('ref_axis',(1.,0.,0.));
#438=DIRECTION('',(-1.,-2.7112901968022E-16,0.));
#439=DIRECTION('',(-2.7112901968022E-16,1.,0.));
#440=DIRECTION('',(1.,1.97523073296232E-16,0.));
#441=DIRECTION('',(2.7112901968022E-16,-1.,0.));
#442=DIRECTION('center_axis',(-1.,-2.7112901968022E-16,0.));
#443=DIRECTION('ref_axis',(0.,-0.573576436351049,0.81915204428899));
#444=DIRECTION('',(1.,2.7112901968022E-16,0.));
#445=DIRECTION('center_axis',(-0.707106781186549,0.707106781186546,0.));
#446=DIRECTION('ref_axis',(0.707106781186546,0.707106781186549,0.));
#447=DIRECTION('center_axis',(-0.707106781186547,-0.707106781186548,2.51214793389404E-15));
#448=DIRECTION('ref_axis',(-0.707106781186548,0.707106781186547,2.51214793389405E-15));
#449=DIRECTION('center_axis',(-2.7112901968022E-16,1.,0.));
#450=DIRECTION('ref_axis',(-0.573576436351049,0.,0.81915204428899));
#451=DIRECTION('',(2.7112901968022E-16,-1.,0.));
#452=DIRECTION('center_axis',(0.707106781186544,0.707106781186552,0.));
#453=DIRECTION('ref_axis',(0.707106781186552,-0.707106781186543,0.));
#454=DIRECTION('center_axis',(2.7112901968022E-16,-1.,0.));
#455=DIRECTION('ref_axis',(0.573576436351049,0.,0.81915204428899));
#456=DIRECTION('center_axis',(-0.707106781186548,0.707106781186548,0.));
#457=DIRECTION('ref_axis',(0.707106781186547,0.707106781186547,0.));
#458=DIRECTION('',(-2.7112901968022E-16,1.,0.));
#459=DIRECTION('center_axis',(1.,1.97523073296232E-16,0.));
#460=DIRECTION('ref_axis',(0.,0.573576436351049,0.81915204428899));
#461=DIRECTION('',(-1.,-1.97523073296232E-16,0.));
#462=DIRECTION('center_axis',(-0.93969262078591,-2.54777939074421E-16,0.342020143325665));
#463=DIRECTION('ref_axis',(0.342020143325665,0.,0.93969262078591));
#464=DIRECTION('',(0.323615577118181,0.323615577118182,0.889126490715991));
#465=DIRECTION('',(2.7112901968022E-16,-1.,0.));
#466=DIRECTION('',(0.323615577118182,-0.323615577118181,0.889126490715991));
#467=DIRECTION('center_axis',(2.54777939074421E-16,-0.93969262078591,0.342020143325665));
#468=DIRECTION('ref_axis',(0.,-0.342020143325665,-0.93969262078591));
#469=DIRECTION('',(-0.323615577118182,0.323615577118181,0.889126490715991));
#470=DIRECTION('',(1.,2.7112901968022E-16,0.));
#471=DIRECTION('center_axis',(-1.85610974411423E-16,0.93969262078591,0.342020143325665));
#472=DIRECTION('ref_axis',(0.,-0.342020143325665,0.93969262078591));
#473=DIRECTION('',(-1.,-1.97523073296232E-16,0.));
#474=DIRECTION('',(0.323615577118181,0.323615577118181,-0.889126490715991));
#475=DIRECTION('center_axis',(0.93969262078591,2.54777939074421E-16,0.342020143325665));
#476=DIRECTION('ref_axis',(0.342020143325665,0.,-0.93969262078591));
#477=DIRECTION('',(-2.7112901968022E-16,1.,0.));
#478=DIRECTION('center_axis',(0.,0.,1.));
#479=DIRECTION('ref_axis',(1.,0.,0.));
#480=DIRECTION('center_axis',(0.,0.,-1.));
#481=DIRECTION('ref_axis',(1.,7.48464959895846E-17,0.));
#482=DIRECTION('center_axis',(1.22464679914735E-16,-1.,0.));
#483=DIRECTION('ref_axis',(-1.,-1.22464679914735E-16,0.));
#484=DIRECTION('center_axis',(0.,0.,1.));
#485=DIRECTION('ref_axis',(1.,7.48464959895846E-17,0.));
#486=DIRECTION('center_axis',(0.,0.,-1.));
#487=DIRECTION('ref_axis',(-1.,0.,0.));
#488=DIRECTION('center_axis',(0.,0.,-1.));
#489=DIRECTION('ref_axis',(1.,0.,0.));
#490=DIRECTION('center_axis',(0.,0.,1.));
#491=DIRECTION('ref_axis',(1.,0.,0.));
#492=DIRECTION('',(0.085401141346436,1.04586234393444E-17,0.996346649041751));
#493=DIRECTION('center_axis',(0.,0.,1.));
#494=DIRECTION('ref_axis',(1.,0.,0.));
#495=DIRECTION('',(1.49587944370547E-16,-1.,0.));
#496=DIRECTION('center_axis',(-0.999444906913904,-2.94929269101661E-16,
0.0333148321901589));
#497=DIRECTION('ref_axis',(0.0333148321901589,0.,0.999444906913904));
#498=CARTESIAN_POINT('',(0.,0.,0.));
#499=CARTESIAN_POINT('Origin',(-4.40872847693047E-14,-240.,75.));
#500=CARTESIAN_POINT('',(230.,-230.,85.));
#501=CARTESIAN_POINT('',(240.,-240.000000147059,75.));
#502=CARTESIAN_POINT('',(160.,-160.,155.));
#503=CARTESIAN_POINT('',(-230.,-230.,85.));
#504=CARTESIAN_POINT('',(-1.56049619795799E-14,-230.,85.));
#505=CARTESIAN_POINT('',(-240.,-240.,75.));
#506=CARTESIAN_POINT('',(-160.,-160.,155.));
#507=CARTESIAN_POINT('',(118.75,-240.000000142315,74.9999998576851));
#508=CARTESIAN_POINT('Origin',(-240.,2.93915231795365E-14,75.));
#509=CARTESIAN_POINT('',(-230.,230.,85.));
#510=CARTESIAN_POINT('',(-230.,2.13036795008882E-14,85.));
#511=CARTESIAN_POINT('',(-240.,240.,75.));
#512=CARTESIAN_POINT('',(-160.,160.,155.));
#513=CARTESIAN_POINT('',(-240.000000142315,-118.75,74.9999998576851));
#514=CARTESIAN_POINT('Origin',(1.46957615897682E-14,240.,75.));
#515=CARTESIAN_POINT('',(240.,240.000000147059,75.));
#516=CARTESIAN_POINT('',(230.,230.,85.));
#517=CARTESIAN_POINT('',(160.,160.,155.));
#518=CARTESIAN_POINT('',(-118.75,240.000000142315,74.9999998576851));
#519=CARTESIAN_POINT('',(4.07287907811983E-14,230.,85.));
#520=CARTESIAN_POINT('Origin',(237.5,-237.5,0.));
#521=CARTESIAN_POINT('',(-237.5,-237.5,0.));
#522=CARTESIAN_POINT('',(-237.5,-237.5,0.));
#523=CARTESIAN_POINT('',(237.5,-237.5,0.));
#524=CARTESIAN_POINT('',(237.5,-237.5,0.));
#525=CARTESIAN_POINT('',(237.5,-237.5,0.));
#526=CARTESIAN_POINT('Origin',(-237.5,-237.5,0.));
#527=CARTESIAN_POINT('',(-237.5,237.5,0.));
#528=CARTESIAN_POINT('',(-237.5,237.5,0.));
#529=CARTESIAN_POINT('',(-237.5,-237.5,0.));
#530=CARTESIAN_POINT('Origin',(240.,0.,75.));
#531=CARTESIAN_POINT('',(240.000000142315,118.75,74.999999857685));
#532=CARTESIAN_POINT('',(230.,-6.86319687950097E-15,85.));
#533=CARTESIAN_POINT('Origin',(-237.5,237.5,0.));
#534=CARTESIAN_POINT('',(237.5,237.5,0.));
#535=CARTESIAN_POINT('',(237.5,237.5,0.));
#536=CARTESIAN_POINT('',(-237.5,237.5,0.));
#537=CARTESIAN_POINT('Origin',(5.32907051820075E-14,-1.37263937590019E-14,
85.));
#538=CARTESIAN_POINT('',(191.641777724759,191.641777724759,85.));
#539=CARTESIAN_POINT('',(-191.641777724759,191.641777724759,85.));
#540=CARTESIAN_POINT('',(-45.25,191.641777724759,85.));
#541=CARTESIAN_POINT('',(191.641777724759,-191.641777724759,85.));
#542=CARTESIAN_POINT('',(191.641777724759,45.25,85.));
#543=CARTESIAN_POINT('',(-191.641777724759,-191.641777724759,85.));
#544=CARTESIAN_POINT('',(45.2500000000001,-191.641777724759,85.));
#545=CARTESIAN_POINT('',(-191.641777724759,-45.2500000000001,85.));
#546=CARTESIAN_POINT('Origin',(-45.25,191.641777724759,75.));
#547=CARTESIAN_POINT('',(-182.2448515169,182.2448515169,78.4202014332567));
#548=CARTESIAN_POINT('',(182.2448515169,182.2448515169,78.4202014332567));
#549=CARTESIAN_POINT('',(-45.25,182.2448515169,78.4202014332567));
#550=CARTESIAN_POINT('Origin',(191.641777724759,191.641777724759,75.));
#551=CARTESIAN_POINT('Origin',(-191.641777724759,191.641777724759,75.));
#552=CARTESIAN_POINT('Origin',(191.641777724759,45.25,75.));
#553=CARTESIAN_POINT('',(182.2448515169,-182.2448515169,78.4202014332566));
#554=CARTESIAN_POINT('',(182.2448515169,45.25,78.4202014332567));
#555=CARTESIAN_POINT('Origin',(191.641777724759,-191.641777724759,75.));
#556=CARTESIAN_POINT('Origin',(-191.641777724759,-45.2500000000001,75.));
#557=CARTESIAN_POINT('',(-182.2448515169,-182.2448515169,78.4202014332567));
#558=CARTESIAN_POINT('Origin',(-191.641777724759,-191.641777724759,75.));
#559=CARTESIAN_POINT('',(-182.2448515169,-45.2500000000001,78.4202014332567));
#560=CARTESIAN_POINT('Origin',(45.2500000000001,-191.641777724759,75.));
#561=CARTESIAN_POINT('',(45.2500000000001,-182.2448515169,78.4202014332567));
#562=CARTESIAN_POINT('Origin',(182.819851171331,90.5,80.));
#563=CARTESIAN_POINT('',(181.,181.,75.));
#564=CARTESIAN_POINT('',(163.673668984336,163.673668984336,27.3962967724669));
#565=CARTESIAN_POINT('',(181.,-181.,75.));
#566=CARTESIAN_POINT('',(181.,-181.,75.));
#567=CARTESIAN_POINT('',(163.673668984336,-163.673668984336,27.3962967724668));
#568=CARTESIAN_POINT('Origin',(-90.5,182.819851171331,80.));
#569=CARTESIAN_POINT('',(-181.,181.,75.));
#570=CARTESIAN_POINT('',(-163.673668984336,163.673668984336,27.3962967724668));
#571=CARTESIAN_POINT('',(181.,181.,75.));
#572=CARTESIAN_POINT('Origin',(90.5,-182.819851171331,80.));
#573=CARTESIAN_POINT('',(-181.,-181.,75.));
#574=CARTESIAN_POINT('',(-181.,-181.,75.));
#575=CARTESIAN_POINT('',(-163.673668984336,-163.673668984336,27.3962967724668));
#576=CARTESIAN_POINT('Origin',(-182.819851171331,-90.5000000000001,80.));
#577=CARTESIAN_POINT('',(-181.,181.,75.));
#578=CARTESIAN_POINT('Origin',(0.,0.,70.));
#579=CARTESIAN_POINT('',(-170.,-2.0818995585505E-14,70.));
#580=CARTESIAN_POINT('Origin',(0.,0.,70.));
#581=CARTESIAN_POINT('',(-175.,-3.4529455783256E-14,75.));
#582=CARTESIAN_POINT('Origin',(-175.,-2.14313189850787E-14,70.));
#583=CARTESIAN_POINT('Origin',(0.,0.,75.));
#584=CARTESIAN_POINT('Origin',(-3.5527136788005E-14,-3.5527136788005E-14,
75.));
#585=CARTESIAN_POINT('Origin',(0.,0.,0.));
#586=CARTESIAN_POINT('',(-176.,-2.15537836649934E-14,-7.45888826744426E-16));
#587=CARTESIAN_POINT('Origin',(0.,0.,0.));
#588=CARTESIAN_POINT('',(-176.,-2.15537836649934E-14,0.));
#589=CARTESIAN_POINT('Origin',(0.,6.45947941600091E-15,0.));
#590=CARTESIAN_POINT('',(237.5,237.5,0.));
#591=CARTESIAN_POINT('Origin',(237.5,237.5,0.));
#592=UNCERTAINTY_MEASURE_WITH_UNIT(LENGTH_MEASURE(0.01),#596,
'DISTANCE_ACCURACY_VALUE',
'Maximum model space distance between geometric entities at asserted c
onnectivities');
#593=UNCERTAINTY_MEASURE_WITH_UNIT(LENGTH_MEASURE(0.01),#596,
'DISTANCE_ACCURACY_VALUE',
'Maximum model space distance between geometric entities at asserted c
onnectivities');
#594=(
GEOMETRIC_REPRESENTATION_CONTEXT(3)
GLOBAL_UNCERTAINTY_ASSIGNED_CONTEXT((#592))
GLOBAL_UNIT_ASSIGNED_CONTEXT((#596,#598,#599))
REPRESENTATION_CONTEXT('','3D')
);
#595=(
GEOMETRIC_REPRESENTATION_CONTEXT(3)
GLOBAL_UNCERTAINTY_ASSIGNED_CONTEXT((#593))
GLOBAL_UNIT_ASSIGNED_CONTEXT((#596,#598,#599))
REPRESENTATION_CONTEXT('','3D')
);
#596=(
LENGTH_UNIT()
NAMED_UNIT(*)
SI_UNIT(.MILLI.,.METRE.)
);
#597=(
LENGTH_UNIT()
NAMED_UNIT(*)
SI_UNIT(.CENTI.,.METRE.)
);
#598=(
NAMED_UNIT(*)
PLANE_ANGLE_UNIT()
SI_UNIT($,.RADIAN.)
);
#599=(
NAMED_UNIT(*)
SI_UNIT($,.STERADIAN.)
SOLID_ANGLE_UNIT()
);
#600=SHAPE_DEFINITION_REPRESENTATION(#601,#602);
#601=PRODUCT_DEFINITION_SHAPE('',$,#604);
#602=SHAPE_REPRESENTATION('',(#371),#594);
#603=PRODUCT_DEFINITION_CONTEXT('part definition',#608,'design');
#604=PRODUCT_DEFINITION('660260z','660260z',#605,#603);
#605=PRODUCT_DEFINITION_FORMATION('',$,#610);
#606=PRODUCT_RELATED_PRODUCT_CATEGORY('660260z','660260z',(#610));
#607=APPLICATION_PROTOCOL_DEFINITION('international standard',
'automotive_design',2009,#608);
#608=APPLICATION_CONTEXT(
'Core Data for Automotive Mechanical Design Process');
#609=PRODUCT_CONTEXT('part definition',#608,'mechanical');
#610=PRODUCT('660260z','660260z',$,(#609));
#611=PRESENTATION_STYLE_ASSIGNMENT((#612));
#612=SURFACE_STYLE_USAGE(.BOTH.,#615);
#613=SURFACE_STYLE_RENDERING_WITH_PROPERTIES($,#619,(#614));
#614=SURFACE_STYLE_TRANSPARENT(0.);
#615=SURFACE_SIDE_STYLE('',(#616,#613));
#616=SURFACE_STYLE_FILL_AREA(#617);
#617=FILL_AREA_STYLE('',(#618));
#618=FILL_AREA_STYLE_COLOUR('',#619);
#619=COLOUR_RGB('',0.749019607843137,0.749019607843137,0.749019607843137);
ENDSEC;
END-ISO-10303-21;
