ISO-10303-21;
HEADER;
/* Generated by software containing ST-Developer
 * from STEP Tools, Inc. (www.steptools.com) 
 */

FILE_DESCRIPTION(
/* description */ (''),
/* implementation_level */ '2;1');

FILE_NAME(
/* name */ 
'Y:\\ACad-Dateien\\Ostendorf\\HT\\Kundenzeichnung\\Standardzeichnungen
\\559820 HTM DN_OD 50 wei\X\DF.stp',
/* time_stamp */ '2018-01-12T10:42:46+01:00',
/* author */ ('user1'),
/* organization */ (''),
/* preprocessor_version */ 'ST-DEVELOPER v16.1',
/* originating_system */ 'Autodesk Inventor 2016',
/* authorisation */ '');

FILE_SCHEMA (('AUTOMOTIVE_DESIGN { 1 0 10303 214 3 1 1 }'));
ENDSEC;

DATA;
#10=MECHANICAL_DESIGN_GEOMETRIC_PRESENTATION_REPRESENTATION('',(#13),#189);
#11=SHAPE_REPRESENTATION_RELATIONSHIP('SRR','None',#198,#12);
#12=ADVANCED_BREP_SHAPE_REPRESENTATION('',(#14),#188);
#13=STYLED_ITEM('',(#207),#14);
#14=MANIFOLD_SOLID_BREP('Volumenk\X\F6rper1',#105);
#15=TOROIDAL_SURFACE('',#121,22.,1.);
#16=CONICAL_SURFACE('',#115,24.6310889132455,15.);
#17=FACE_BOUND('',#38,.T.);
#18=FACE_BOUND('',#40,.T.);
#19=FACE_BOUND('',#42,.T.);
#20=FACE_BOUND('',#44,.T.);
#21=FACE_BOUND('',#46,.T.);
#22=FACE_BOUND('',#48,.T.);
#23=FACE_BOUND('',#50,.T.);
#24=CYLINDRICAL_SURFACE('',#109,27.5);
#25=CYLINDRICAL_SURFACE('',#113,25.1);
#26=CYLINDRICAL_SURFACE('',#119,23.);
#27=FACE_OUTER_BOUND('',#36,.T.);
#28=FACE_OUTER_BOUND('',#37,.T.);
#29=FACE_OUTER_BOUND('',#39,.T.);
#30=FACE_OUTER_BOUND('',#41,.T.);
#31=FACE_OUTER_BOUND('',#43,.T.);
#32=FACE_OUTER_BOUND('',#45,.T.);
#33=FACE_OUTER_BOUND('',#47,.T.);
#34=FACE_OUTER_BOUND('',#49,.T.);
#35=FACE_OUTER_BOUND('',#51,.T.);
#36=EDGE_LOOP('',(#76));
#37=EDGE_LOOP('',(#77));
#38=EDGE_LOOP('',(#78));
#39=EDGE_LOOP('',(#79));
#40=EDGE_LOOP('',(#80));
#41=EDGE_LOOP('',(#81));
#42=EDGE_LOOP('',(#82));
#43=EDGE_LOOP('',(#83));
#44=EDGE_LOOP('',(#84));
#45=EDGE_LOOP('',(#85));
#46=EDGE_LOOP('',(#86));
#47=EDGE_LOOP('',(#87));
#48=EDGE_LOOP('',(#88));
#49=EDGE_LOOP('',(#89));
#50=EDGE_LOOP('',(#90));
#51=EDGE_LOOP('',(#91));
#52=CIRCLE('',#108,27.5);
#53=CIRCLE('',#110,27.5);
#54=CIRCLE('',#112,25.1);
#55=CIRCLE('',#114,25.1);
#56=CIRCLE('',#116,24.1621778264911);
#57=CIRCLE('',#118,23.);
#58=CIRCLE('',#120,23.);
#59=CIRCLE('',#122,22.);
#60=VERTEX_POINT('',#162);
#61=VERTEX_POINT('',#165);
#62=VERTEX_POINT('',#168);
#63=VERTEX_POINT('',#171);
#64=VERTEX_POINT('',#174);
#65=VERTEX_POINT('',#177);
#66=VERTEX_POINT('',#180);
#67=VERTEX_POINT('',#183);
#68=EDGE_CURVE('',#60,#60,#52,.T.);
#69=EDGE_CURVE('',#61,#61,#53,.T.);
#70=EDGE_CURVE('',#62,#62,#54,.T.);
#71=EDGE_CURVE('',#63,#63,#55,.T.);
#72=EDGE_CURVE('',#64,#64,#56,.T.);
#73=EDGE_CURVE('',#65,#65,#57,.T.);
#74=EDGE_CURVE('',#66,#66,#58,.T.);
#75=EDGE_CURVE('',#67,#67,#59,.T.);
#76=ORIENTED_EDGE('',*,*,#68,.F.);
#77=ORIENTED_EDGE('',*,*,#68,.T.);
#78=ORIENTED_EDGE('',*,*,#69,.F.);
#79=ORIENTED_EDGE('',*,*,#69,.T.);
#80=ORIENTED_EDGE('',*,*,#70,.F.);
#81=ORIENTED_EDGE('',*,*,#70,.T.);
#82=ORIENTED_EDGE('',*,*,#71,.F.);
#83=ORIENTED_EDGE('',*,*,#71,.T.);
#84=ORIENTED_EDGE('',*,*,#72,.F.);
#85=ORIENTED_EDGE('',*,*,#72,.T.);
#86=ORIENTED_EDGE('',*,*,#73,.F.);
#87=ORIENTED_EDGE('',*,*,#73,.T.);
#88=ORIENTED_EDGE('',*,*,#74,.F.);
#89=ORIENTED_EDGE('',*,*,#74,.T.);
#90=ORIENTED_EDGE('',*,*,#75,.F.);
#91=ORIENTED_EDGE('',*,*,#75,.T.);
#92=PLANE('',#107);
#93=PLANE('',#111);
#94=PLANE('',#117);
#95=PLANE('',#123);
#96=ADVANCED_FACE('',(#27),#92,.T.);
#97=ADVANCED_FACE('',(#28,#17),#24,.T.);
#98=ADVANCED_FACE('',(#29,#18),#93,.T.);
#99=ADVANCED_FACE('',(#30,#19),#25,.T.);
#100=ADVANCED_FACE('',(#31,#20),#16,.T.);
#101=ADVANCED_FACE('',(#32,#21),#94,.T.);
#102=ADVANCED_FACE('',(#33,#22),#26,.F.);
#103=ADVANCED_FACE('',(#34,#23),#15,.F.);
#104=ADVANCED_FACE('',(#35),#95,.T.);
#105=CLOSED_SHELL('',(#96,#97,#98,#99,#100,#101,#102,#103,#104));
#106=AXIS2_PLACEMENT_3D('placement',#160,#124,#125);
#107=AXIS2_PLACEMENT_3D('',#161,#126,#127);
#108=AXIS2_PLACEMENT_3D('',#163,#128,#129);
#109=AXIS2_PLACEMENT_3D('',#164,#130,#131);
#110=AXIS2_PLACEMENT_3D('',#166,#132,#133);
#111=AXIS2_PLACEMENT_3D('',#167,#134,#135);
#112=AXIS2_PLACEMENT_3D('',#169,#136,#137);
#113=AXIS2_PLACEMENT_3D('',#170,#138,#139);
#114=AXIS2_PLACEMENT_3D('',#172,#140,#141);
#115=AXIS2_PLACEMENT_3D('',#173,#142,#143);
#116=AXIS2_PLACEMENT_3D('',#175,#144,#145);
#117=AXIS2_PLACEMENT_3D('',#176,#146,#147);
#118=AXIS2_PLACEMENT_3D('',#178,#148,#149);
#119=AXIS2_PLACEMENT_3D('',#179,#150,#151);
#120=AXIS2_PLACEMENT_3D('',#181,#152,#153);
#121=AXIS2_PLACEMENT_3D('',#182,#154,#155);
#122=AXIS2_PLACEMENT_3D('',#184,#156,#157);
#123=AXIS2_PLACEMENT_3D('',#185,#158,#159);
#124=DIRECTION('axis',(0.,0.,1.));
#125=DIRECTION('refdir',(1.,0.,0.));
#126=DIRECTION('center_axis',(0.,1.,0.));
#127=DIRECTION('ref_axis',(0.,0.,1.));
#128=DIRECTION('center_axis',(0.,-1.,0.));
#129=DIRECTION('ref_axis',(1.,0.,0.));
#130=DIRECTION('center_axis',(0.,-1.,0.));
#131=DIRECTION('ref_axis',(1.,0.,0.));
#132=DIRECTION('center_axis',(0.,-1.,0.));
#133=DIRECTION('ref_axis',(1.,0.,0.));
#134=DIRECTION('center_axis',(0.,-1.,0.));
#135=DIRECTION('ref_axis',(0.,0.,-1.));
#136=DIRECTION('center_axis',(0.,-1.,0.));
#137=DIRECTION('ref_axis',(1.,0.,0.));
#138=DIRECTION('center_axis',(0.,-1.,0.));
#139=DIRECTION('ref_axis',(1.,0.,0.));
#140=DIRECTION('center_axis',(0.,-1.,0.));
#141=DIRECTION('ref_axis',(1.,0.,0.));
#142=DIRECTION('center_axis',(0.,1.,0.));
#143=DIRECTION('ref_axis',(1.,0.,0.));
#144=DIRECTION('center_axis',(0.,-1.,0.));
#145=DIRECTION('ref_axis',(1.,0.,0.));
#146=DIRECTION('center_axis',(0.,-1.,0.));
#147=DIRECTION('ref_axis',(0.,0.,-1.));
#148=DIRECTION('center_axis',(0.,-1.,0.));
#149=DIRECTION('ref_axis',(1.,0.,0.));
#150=DIRECTION('center_axis',(0.,-1.,0.));
#151=DIRECTION('ref_axis',(1.,0.,0.));
#152=DIRECTION('center_axis',(0.,-1.,0.));
#153=DIRECTION('ref_axis',(1.,0.,0.));
#154=DIRECTION('center_axis',(0.,-1.,0.));
#155=DIRECTION('ref_axis',(0.,0.,-1.));
#156=DIRECTION('center_axis',(0.,-1.,0.));
#157=DIRECTION('ref_axis',(1.,0.,0.));
#158=DIRECTION('center_axis',(0.,-1.,0.));
#159=DIRECTION('ref_axis',(0.,0.,-1.));
#160=CARTESIAN_POINT('',(0.,0.,0.));
#161=CARTESIAN_POINT('Origin',(27.5,34.5,0.));
#162=CARTESIAN_POINT('',(27.5,34.5,0.));
#163=CARTESIAN_POINT('Origin',(0.,34.5,0.));
#164=CARTESIAN_POINT('Origin',(0.,33.15,0.));
#165=CARTESIAN_POINT('',(27.5,31.8,0.));
#166=CARTESIAN_POINT('Origin',(0.,31.8,0.));
#167=CARTESIAN_POINT('Origin',(25.1,31.8,0.));
#168=CARTESIAN_POINT('',(25.1,31.8,0.));
#169=CARTESIAN_POINT('Origin',(0.,31.8,0.));
#170=CARTESIAN_POINT('Origin',(0.,17.65,0.));
#171=CARTESIAN_POINT('',(25.1,3.5,0.));
#172=CARTESIAN_POINT('Origin',(0.,3.5,0.));
#173=CARTESIAN_POINT('Origin',(0.,1.75,0.));
#174=CARTESIAN_POINT('',(24.1621778264911,6.24500451351651E-16,0.));
#175=CARTESIAN_POINT('Origin',(0.,0.,0.));
#176=CARTESIAN_POINT('Origin',(23.,0.,0.));
#177=CARTESIAN_POINT('',(23.,0.,0.));
#178=CARTESIAN_POINT('Origin',(0.,0.,0.));
#179=CARTESIAN_POINT('Origin',(0.,15.4,0.));
#180=CARTESIAN_POINT('',(23.,30.8,0.));
#181=CARTESIAN_POINT('Origin',(0.,30.8,0.));
#182=CARTESIAN_POINT('Origin',(0.,30.8,0.));
#183=CARTESIAN_POINT('',(22.,31.8,0.));
#184=CARTESIAN_POINT('Origin',(0.,31.8,0.));
#185=CARTESIAN_POINT('Origin',(0.,31.8,0.));
#186=UNCERTAINTY_MEASURE_WITH_UNIT(LENGTH_MEASURE(0.01),#190,
'DISTANCE_ACCURACY_VALUE',
'Maximum model space distance between geometric entities at asserted c
onnectivities');
#187=UNCERTAINTY_MEASURE_WITH_UNIT(LENGTH_MEASURE(1.E-6),#190,
'DISTANCE_ACCURACY_VALUE',
'Maximum model space distance between geometric entities at asserted c
onnectivities');
#188=(
GEOMETRIC_REPRESENTATION_CONTEXT(3)
GLOBAL_UNCERTAINTY_ASSIGNED_CONTEXT((#186))
GLOBAL_UNIT_ASSIGNED_CONTEXT((#190,#193,#191))
REPRESENTATION_CONTEXT('','3D')
);
#189=(
GEOMETRIC_REPRESENTATION_CONTEXT(3)
GLOBAL_UNCERTAINTY_ASSIGNED_CONTEXT((#187))
GLOBAL_UNIT_ASSIGNED_CONTEXT((#190,#193,#191))
REPRESENTATION_CONTEXT('','3D')
);
#190=(
LENGTH_UNIT()
NAMED_UNIT(*)
SI_UNIT(.MILLI.,.METRE.)
);
#191=(
NAMED_UNIT(*)
SI_UNIT($,.STERADIAN.)
SOLID_ANGLE_UNIT()
);
#192=DIMENSIONAL_EXPONENTS(0.,0.,0.,0.,0.,0.,0.);
#193=(
CONVERSION_BASED_UNIT('degree',#195)
NAMED_UNIT(#192)
PLANE_ANGLE_UNIT()
);
#194=(
NAMED_UNIT(*)
PLANE_ANGLE_UNIT()
SI_UNIT($,.RADIAN.)
);
#195=PLANE_ANGLE_MEASURE_WITH_UNIT(PLANE_ANGLE_MEASURE(0.01745329252),#194);
#196=SHAPE_DEFINITION_REPRESENTATION(#197,#198);
#197=PRODUCT_DEFINITION_SHAPE('',$,#200);
#198=SHAPE_REPRESENTATION('',(#106),#188);
#199=PRODUCT_DEFINITION_CONTEXT('part definition',#204,'design');
#200=PRODUCT_DEFINITION('559820 HTM DN_OD 50 wei\X\DF',
'559820 HTM DN_OD 50 wei\X\DF',#201,#199);
#201=PRODUCT_DEFINITION_FORMATION('',$,#206);
#202=PRODUCT_RELATED_PRODUCT_CATEGORY('559820 HTM DN_OD 50 wei\X\DF',
'559820 HTM DN_OD 50 wei\X\DF',(#206));
#203=APPLICATION_PROTOCOL_DEFINITION('international standard',
'automotive_design',2009,#204);
#204=APPLICATION_CONTEXT(
'Core Data for Automotive Mechanical Design Process');
#205=PRODUCT_CONTEXT('part definition',#204,'mechanical');
#206=PRODUCT('559820 HTM DN_OD 50 wei\X\DF','559820 HTM DN_OD 50 wei\X\DF',
$,(#205));
#207=PRESENTATION_STYLE_ASSIGNMENT((#208));
#208=SURFACE_STYLE_USAGE(.BOTH.,#209);
#209=SURFACE_SIDE_STYLE('',(#210));
#210=SURFACE_STYLE_FILL_AREA(#211);
#211=FILL_AREA_STYLE('',(#212));
#212=FILL_AREA_STYLE_COLOUR('',#213);
#213=COLOUR_RGB('',0.749019607843137,0.749019607843137,0.749019607843137);
ENDSEC;
END-ISO-10303-21;
