ISO-10303-21;
HEADER;
/* Generated by software containing ST-Developer
 * from STEP Tools, Inc. (www.steptools.com) 
 */

FILE_DESCRIPTION(
/* description */ (''),
/* implementation_level */ '2;1');

FILE_NAME(
/* name */ 
'Y:\\ACad-Dateien\\Ostendorf\\Skolan Safe\\Kundenzeichnung\\336040 SKO
LANsafeEM Passl\X\E4ngen DN_OD 135x1000.stp',
/* time_stamp */ '2018-01-09T13:41:27+01:00',
/* author */ ('user1'),
/* organization */ (''),
/* preprocessor_version */ 'ST-DEVELOPER v16.1',
/* originating_system */ 'Autodesk Inventor 2016',
/* authorisation */ '');

FILE_SCHEMA (('AUTOMOTIVE_DESIGN { 1 0 10303 214 3 1 1 }'));
ENDSEC;

DATA;
#10=MECHANICAL_DESIGN_GEOMETRIC_PRESENTATION_REPRESENTATION('',(#13),#563);
#11=SHAPE_REPRESENTATION_RELATIONSHIP('SRR','None',#572,#12);
#12=ADVANCED_BREP_SHAPE_REPRESENTATION('',(#14),#562);
#13=STYLED_ITEM('',(#581),#14);
#14=MANIFOLD_SOLID_BREP('Volumenk\X\F6rper1',#312);
#15=PLANE('',#330);
#16=CONICAL_SURFACE('',#319,69.9535533905933,45.0000000000002);
#17=CONICAL_SURFACE('',#326,64.9035533905933,44.9999999999999);
#18=CONICAL_SURFACE('',#337,70.75,85.0000000000007);
#19=CONICAL_SURFACE('',#345,71.4085979924461,83.0000000000001);
#20=CYLINDRICAL_SURFACE('',#317,67.65);
#21=CYLINDRICAL_SURFACE('',#324,62.35);
#22=CYLINDRICAL_SURFACE('',#333,67.75);
#23=CYLINDRICAL_SURFACE('',#341,73.75);
#24=CYLINDRICAL_SURFACE('',#349,67.75);
#25=CYLINDRICAL_SURFACE('',#365,72.55);
#26=FACE_BOUND('',#81,.T.);
#27=FACE_BOUND('',#83,.T.);
#28=FACE_BOUND('',#85,.T.);
#29=FACE_BOUND('',#87,.T.);
#30=FACE_BOUND('',#89,.T.);
#31=FACE_BOUND('',#91,.T.);
#32=FACE_BOUND('',#93,.T.);
#33=FACE_BOUND('',#95,.T.);
#34=FACE_BOUND('',#97,.T.);
#35=FACE_BOUND('',#99,.T.);
#36=FACE_BOUND('',#101,.T.);
#37=FACE_BOUND('',#103,.T.);
#38=FACE_BOUND('',#105,.T.);
#39=FACE_BOUND('',#107,.T.);
#40=FACE_BOUND('',#109,.T.);
#41=FACE_BOUND('',#111,.T.);
#42=FACE_BOUND('',#113,.T.);
#43=FACE_BOUND('',#115,.T.);
#44=FACE_BOUND('',#117,.T.);
#45=FACE_BOUND('',#119,.T.);
#46=FACE_BOUND('',#121,.T.);
#47=FACE_BOUND('',#123,.T.);
#48=FACE_BOUND('',#125,.T.);
#49=FACE_BOUND('',#127,.T.);
#50=FACE_BOUND('',#129,.T.);
#51=FACE_BOUND('',#131,.T.);
#52=FACE_BOUND('',#133,.T.);
#53=FACE_OUTER_BOUND('',#80,.T.);
#54=FACE_OUTER_BOUND('',#82,.T.);
#55=FACE_OUTER_BOUND('',#84,.T.);
#56=FACE_OUTER_BOUND('',#86,.T.);
#57=FACE_OUTER_BOUND('',#88,.T.);
#58=FACE_OUTER_BOUND('',#90,.T.);
#59=FACE_OUTER_BOUND('',#92,.T.);
#60=FACE_OUTER_BOUND('',#94,.T.);
#61=FACE_OUTER_BOUND('',#96,.T.);
#62=FACE_OUTER_BOUND('',#98,.T.);
#63=FACE_OUTER_BOUND('',#100,.T.);
#64=FACE_OUTER_BOUND('',#102,.T.);
#65=FACE_OUTER_BOUND('',#104,.T.);
#66=FACE_OUTER_BOUND('',#106,.T.);
#67=FACE_OUTER_BOUND('',#108,.T.);
#68=FACE_OUTER_BOUND('',#110,.T.);
#69=FACE_OUTER_BOUND('',#112,.T.);
#70=FACE_OUTER_BOUND('',#114,.T.);
#71=FACE_OUTER_BOUND('',#116,.T.);
#72=FACE_OUTER_BOUND('',#118,.T.);
#73=FACE_OUTER_BOUND('',#120,.T.);
#74=FACE_OUTER_BOUND('',#122,.T.);
#75=FACE_OUTER_BOUND('',#124,.T.);
#76=FACE_OUTER_BOUND('',#126,.T.);
#77=FACE_OUTER_BOUND('',#128,.T.);
#78=FACE_OUTER_BOUND('',#130,.T.);
#79=FACE_OUTER_BOUND('',#132,.T.);
#80=EDGE_LOOP('',(#215));
#81=EDGE_LOOP('',(#216));
#82=EDGE_LOOP('',(#217));
#83=EDGE_LOOP('',(#218));
#84=EDGE_LOOP('',(#219));
#85=EDGE_LOOP('',(#220));
#86=EDGE_LOOP('',(#221));
#87=EDGE_LOOP('',(#222));
#88=EDGE_LOOP('',(#223));
#89=EDGE_LOOP('',(#224));
#90=EDGE_LOOP('',(#225));
#91=EDGE_LOOP('',(#226));
#92=EDGE_LOOP('',(#227));
#93=EDGE_LOOP('',(#228));
#94=EDGE_LOOP('',(#229));
#95=EDGE_LOOP('',(#230));
#96=EDGE_LOOP('',(#231));
#97=EDGE_LOOP('',(#232));
#98=EDGE_LOOP('',(#233));
#99=EDGE_LOOP('',(#234));
#100=EDGE_LOOP('',(#235));
#101=EDGE_LOOP('',(#236));
#102=EDGE_LOOP('',(#237));
#103=EDGE_LOOP('',(#238));
#104=EDGE_LOOP('',(#239));
#105=EDGE_LOOP('',(#240));
#106=EDGE_LOOP('',(#241));
#107=EDGE_LOOP('',(#242));
#108=EDGE_LOOP('',(#243));
#109=EDGE_LOOP('',(#244));
#110=EDGE_LOOP('',(#245));
#111=EDGE_LOOP('',(#246));
#112=EDGE_LOOP('',(#247));
#113=EDGE_LOOP('',(#248));
#114=EDGE_LOOP('',(#249));
#115=EDGE_LOOP('',(#250));
#116=EDGE_LOOP('',(#251));
#117=EDGE_LOOP('',(#252));
#118=EDGE_LOOP('',(#253));
#119=EDGE_LOOP('',(#254));
#120=EDGE_LOOP('',(#255));
#121=EDGE_LOOP('',(#256));
#122=EDGE_LOOP('',(#257));
#123=EDGE_LOOP('',(#258));
#124=EDGE_LOOP('',(#259));
#125=EDGE_LOOP('',(#260));
#126=EDGE_LOOP('',(#261));
#127=EDGE_LOOP('',(#262));
#128=EDGE_LOOP('',(#263));
#129=EDGE_LOOP('',(#264));
#130=EDGE_LOOP('',(#265));
#131=EDGE_LOOP('',(#266));
#132=EDGE_LOOP('',(#267));
#133=EDGE_LOOP('',(#268));
#134=CIRCLE('',#315,67.9428932188134);
#135=CIRCLE('',#316,67.65);
#136=CIRCLE('',#318,67.65);
#137=CIRCLE('',#320,72.2571067811866);
#138=CIRCLE('',#322,62.35);
#139=CIRCLE('',#323,62.6428932188134);
#140=CIRCLE('',#325,62.35);
#141=CIRCLE('',#327,67.4571067811865);
#142=CIRCLE('',#329,65.396794344809);
#143=CIRCLE('',#332,67.75);
#144=CIRCLE('',#334,67.75);
#145=CIRCLE('',#336,68.6628442572523);
#146=CIRCLE('',#338,72.8371557427477);
#147=CIRCLE('',#340,73.75);
#148=CIRCLE('',#342,73.75);
#149=CIRCLE('',#344,72.8718693434051);
#150=CIRCLE('',#346,69.9453266414871);
#151=CIRCLE('',#348,67.75);
#152=CIRCLE('',#350,67.75);
#153=CIRCLE('',#352,68.75);
#154=CIRCLE('',#354,72.0838325201233);
#155=CIRCLE('',#356,74.5735194817842);
#156=CIRCLE('',#358,77.23249591476);
#157=CIRCLE('',#360,77.23249591476);
#158=CIRCLE('',#362,74.9252942787774);
#159=CIRCLE('',#364,72.55);
#160=CIRCLE('',#366,72.55);
#161=VERTEX_POINT('',#480);
#162=VERTEX_POINT('',#482);
#163=VERTEX_POINT('',#485);
#164=VERTEX_POINT('',#488);
#165=VERTEX_POINT('',#491);
#166=VERTEX_POINT('',#493);
#167=VERTEX_POINT('',#496);
#168=VERTEX_POINT('',#499);
#169=VERTEX_POINT('',#502);
#170=VERTEX_POINT('',#506);
#171=VERTEX_POINT('',#509);
#172=VERTEX_POINT('',#512);
#173=VERTEX_POINT('',#515);
#174=VERTEX_POINT('',#518);
#175=VERTEX_POINT('',#521);
#176=VERTEX_POINT('',#524);
#177=VERTEX_POINT('',#527);
#178=VERTEX_POINT('',#530);
#179=VERTEX_POINT('',#533);
#180=VERTEX_POINT('',#536);
#181=VERTEX_POINT('',#539);
#182=VERTEX_POINT('',#542);
#183=VERTEX_POINT('',#545);
#184=VERTEX_POINT('',#548);
#185=VERTEX_POINT('',#551);
#186=VERTEX_POINT('',#554);
#187=VERTEX_POINT('',#557);
#188=EDGE_CURVE('',#161,#161,#134,.T.);
#189=EDGE_CURVE('',#162,#162,#135,.T.);
#190=EDGE_CURVE('',#163,#163,#136,.T.);
#191=EDGE_CURVE('',#164,#164,#137,.T.);
#192=EDGE_CURVE('',#165,#165,#138,.T.);
#193=EDGE_CURVE('',#166,#166,#139,.T.);
#194=EDGE_CURVE('',#167,#167,#140,.T.);
#195=EDGE_CURVE('',#168,#168,#141,.T.);
#196=EDGE_CURVE('',#169,#169,#142,.T.);
#197=EDGE_CURVE('',#170,#170,#143,.T.);
#198=EDGE_CURVE('',#171,#171,#144,.T.);
#199=EDGE_CURVE('',#172,#172,#145,.T.);
#200=EDGE_CURVE('',#173,#173,#146,.T.);
#201=EDGE_CURVE('',#174,#174,#147,.T.);
#202=EDGE_CURVE('',#175,#175,#148,.T.);
#203=EDGE_CURVE('',#176,#176,#149,.T.);
#204=EDGE_CURVE('',#177,#177,#150,.T.);
#205=EDGE_CURVE('',#178,#178,#151,.T.);
#206=EDGE_CURVE('',#179,#179,#152,.T.);
#207=EDGE_CURVE('',#180,#180,#153,.T.);
#208=EDGE_CURVE('',#181,#181,#154,.T.);
#209=EDGE_CURVE('',#182,#182,#155,.T.);
#210=EDGE_CURVE('',#183,#183,#156,.T.);
#211=EDGE_CURVE('',#184,#184,#157,.T.);
#212=EDGE_CURVE('',#185,#185,#158,.T.);
#213=EDGE_CURVE('',#186,#186,#159,.T.);
#214=EDGE_CURVE('',#187,#187,#160,.T.);
#215=ORIENTED_EDGE('',*,*,#188,.T.);
#216=ORIENTED_EDGE('',*,*,#189,.T.);
#217=ORIENTED_EDGE('',*,*,#190,.F.);
#218=ORIENTED_EDGE('',*,*,#189,.F.);
#219=ORIENTED_EDGE('',*,*,#191,.T.);
#220=ORIENTED_EDGE('',*,*,#188,.F.);
#221=ORIENTED_EDGE('',*,*,#192,.T.);
#222=ORIENTED_EDGE('',*,*,#193,.T.);
#223=ORIENTED_EDGE('',*,*,#194,.T.);
#224=ORIENTED_EDGE('',*,*,#192,.F.);
#225=ORIENTED_EDGE('',*,*,#195,.F.);
#226=ORIENTED_EDGE('',*,*,#193,.F.);
#227=ORIENTED_EDGE('',*,*,#190,.T.);
#228=ORIENTED_EDGE('',*,*,#196,.F.);
#229=ORIENTED_EDGE('',*,*,#196,.T.);
#230=ORIENTED_EDGE('',*,*,#194,.F.);
#231=ORIENTED_EDGE('',*,*,#195,.T.);
#232=ORIENTED_EDGE('',*,*,#197,.F.);
#233=ORIENTED_EDGE('',*,*,#197,.T.);
#234=ORIENTED_EDGE('',*,*,#198,.F.);
#235=ORIENTED_EDGE('',*,*,#198,.T.);
#236=ORIENTED_EDGE('',*,*,#199,.F.);
#237=ORIENTED_EDGE('',*,*,#199,.T.);
#238=ORIENTED_EDGE('',*,*,#200,.F.);
#239=ORIENTED_EDGE('',*,*,#200,.T.);
#240=ORIENTED_EDGE('',*,*,#201,.F.);
#241=ORIENTED_EDGE('',*,*,#201,.T.);
#242=ORIENTED_EDGE('',*,*,#202,.F.);
#243=ORIENTED_EDGE('',*,*,#202,.T.);
#244=ORIENTED_EDGE('',*,*,#203,.F.);
#245=ORIENTED_EDGE('',*,*,#203,.T.);
#246=ORIENTED_EDGE('',*,*,#204,.F.);
#247=ORIENTED_EDGE('',*,*,#204,.T.);
#248=ORIENTED_EDGE('',*,*,#205,.F.);
#249=ORIENTED_EDGE('',*,*,#205,.T.);
#250=ORIENTED_EDGE('',*,*,#206,.F.);
#251=ORIENTED_EDGE('',*,*,#206,.T.);
#252=ORIENTED_EDGE('',*,*,#207,.F.);
#253=ORIENTED_EDGE('',*,*,#207,.T.);
#254=ORIENTED_EDGE('',*,*,#208,.F.);
#255=ORIENTED_EDGE('',*,*,#208,.T.);
#256=ORIENTED_EDGE('',*,*,#209,.F.);
#257=ORIENTED_EDGE('',*,*,#209,.T.);
#258=ORIENTED_EDGE('',*,*,#210,.F.);
#259=ORIENTED_EDGE('',*,*,#210,.T.);
#260=ORIENTED_EDGE('',*,*,#211,.F.);
#261=ORIENTED_EDGE('',*,*,#211,.T.);
#262=ORIENTED_EDGE('',*,*,#212,.F.);
#263=ORIENTED_EDGE('',*,*,#212,.T.);
#264=ORIENTED_EDGE('',*,*,#213,.F.);
#265=ORIENTED_EDGE('',*,*,#213,.T.);
#266=ORIENTED_EDGE('',*,*,#214,.F.);
#267=ORIENTED_EDGE('',*,*,#214,.T.);
#268=ORIENTED_EDGE('',*,*,#191,.F.);
#269=TOROIDAL_SURFACE('',#314,68.65,1.);
#270=TOROIDAL_SURFACE('',#321,63.35,1.);
#271=TOROIDAL_SURFACE('',#328,55.65,12.);
#272=TOROIDAL_SURFACE('',#331,66.75,0.999999999999992);
#273=TOROIDAL_SURFACE('',#335,68.75,1.);
#274=TOROIDAL_SURFACE('',#339,72.75,1.);
#275=TOROIDAL_SURFACE('',#343,72.75,1.);
#276=TOROIDAL_SURFACE('',#347,70.25,2.5);
#277=TOROIDAL_SURFACE('',#351,68.75,1.00000000000005);
#278=TOROIDAL_SURFACE('',#353,68.75,3.5);
#279=TOROIDAL_SURFACE('',#355,76.8464504060137,5.);
#280=TOROIDAL_SURFACE('',#357,72.3005885575547,5.);
#281=TOROIDAL_SURFACE('',#359,39.75,38.);
#282=TOROIDAL_SURFACE('',#361,72.3005885575547,5.);
#283=TOROIDAL_SURFACE('',#363,77.55,5.);
#284=TOROIDAL_SURFACE('',#367,71.55,1.00000000000003);
#285=ADVANCED_FACE('',(#53,#26),#269,.F.);
#286=ADVANCED_FACE('',(#54,#27),#20,.T.);
#287=ADVANCED_FACE('',(#55,#28),#16,.T.);
#288=ADVANCED_FACE('',(#56,#29),#270,.T.);
#289=ADVANCED_FACE('',(#57,#30),#21,.F.);
#290=ADVANCED_FACE('',(#58,#31),#17,.F.);
#291=ADVANCED_FACE('',(#59,#32),#271,.T.);
#292=ADVANCED_FACE('',(#60,#33),#15,.T.);
#293=ADVANCED_FACE('',(#61,#34),#272,.F.);
#294=ADVANCED_FACE('',(#62,#35),#22,.F.);
#295=ADVANCED_FACE('',(#63,#36),#273,.T.);
#296=ADVANCED_FACE('',(#64,#37),#18,.F.);
#297=ADVANCED_FACE('',(#65,#38),#274,.F.);
#298=ADVANCED_FACE('',(#66,#39),#23,.F.);
#299=ADVANCED_FACE('',(#67,#40),#275,.F.);
#300=ADVANCED_FACE('',(#68,#41),#19,.F.);
#301=ADVANCED_FACE('',(#69,#42),#276,.T.);
#302=ADVANCED_FACE('',(#70,#43),#24,.F.);
#303=ADVANCED_FACE('',(#71,#44),#277,.T.);
#304=ADVANCED_FACE('',(#72,#45),#278,.T.);
#305=ADVANCED_FACE('',(#73,#46),#279,.F.);
#306=ADVANCED_FACE('',(#74,#47),#280,.T.);
#307=ADVANCED_FACE('',(#75,#48),#281,.T.);
#308=ADVANCED_FACE('',(#76,#49),#282,.T.);
#309=ADVANCED_FACE('',(#77,#50),#283,.F.);
#310=ADVANCED_FACE('',(#78,#51),#25,.T.);
#311=ADVANCED_FACE('',(#79,#52),#284,.T.);
#312=CLOSED_SHELL('',(#285,#286,#287,#288,#289,#290,#291,#292,#293,#294,
#295,#296,#297,#298,#299,#300,#301,#302,#303,#304,#305,#306,#307,#308,#309,
#310,#311));
#313=AXIS2_PLACEMENT_3D('placement',#478,#368,#369);
#314=AXIS2_PLACEMENT_3D('',#479,#370,#371);
#315=AXIS2_PLACEMENT_3D('',#481,#372,#373);
#316=AXIS2_PLACEMENT_3D('',#483,#374,#375);
#317=AXIS2_PLACEMENT_3D('',#484,#376,#377);
#318=AXIS2_PLACEMENT_3D('',#486,#378,#379);
#319=AXIS2_PLACEMENT_3D('',#487,#380,#381);
#320=AXIS2_PLACEMENT_3D('',#489,#382,#383);
#321=AXIS2_PLACEMENT_3D('',#490,#384,#385);
#322=AXIS2_PLACEMENT_3D('',#492,#386,#387);
#323=AXIS2_PLACEMENT_3D('',#494,#388,#389);
#324=AXIS2_PLACEMENT_3D('',#495,#390,#391);
#325=AXIS2_PLACEMENT_3D('',#497,#392,#393);
#326=AXIS2_PLACEMENT_3D('',#498,#394,#395);
#327=AXIS2_PLACEMENT_3D('',#500,#396,#397);
#328=AXIS2_PLACEMENT_3D('',#501,#398,#399);
#329=AXIS2_PLACEMENT_3D('',#503,#400,#401);
#330=AXIS2_PLACEMENT_3D('',#504,#402,#403);
#331=AXIS2_PLACEMENT_3D('',#505,#404,#405);
#332=AXIS2_PLACEMENT_3D('',#507,#406,#407);
#333=AXIS2_PLACEMENT_3D('',#508,#408,#409);
#334=AXIS2_PLACEMENT_3D('',#510,#410,#411);
#335=AXIS2_PLACEMENT_3D('',#511,#412,#413);
#336=AXIS2_PLACEMENT_3D('',#513,#414,#415);
#337=AXIS2_PLACEMENT_3D('',#514,#416,#417);
#338=AXIS2_PLACEMENT_3D('',#516,#418,#419);
#339=AXIS2_PLACEMENT_3D('',#517,#420,#421);
#340=AXIS2_PLACEMENT_3D('',#519,#422,#423);
#341=AXIS2_PLACEMENT_3D('',#520,#424,#425);
#342=AXIS2_PLACEMENT_3D('',#522,#426,#427);
#343=AXIS2_PLACEMENT_3D('',#523,#428,#429);
#344=AXIS2_PLACEMENT_3D('',#525,#430,#431);
#345=AXIS2_PLACEMENT_3D('',#526,#432,#433);
#346=AXIS2_PLACEMENT_3D('',#528,#434,#435);
#347=AXIS2_PLACEMENT_3D('',#529,#436,#437);
#348=AXIS2_PLACEMENT_3D('',#531,#438,#439);
#349=AXIS2_PLACEMENT_3D('',#532,#440,#441);
#350=AXIS2_PLACEMENT_3D('',#534,#442,#443);
#351=AXIS2_PLACEMENT_3D('',#535,#444,#445);
#352=AXIS2_PLACEMENT_3D('',#537,#446,#447);
#353=AXIS2_PLACEMENT_3D('',#538,#448,#449);
#354=AXIS2_PLACEMENT_3D('',#540,#450,#451);
#355=AXIS2_PLACEMENT_3D('',#541,#452,#453);
#356=AXIS2_PLACEMENT_3D('',#543,#454,#455);
#357=AXIS2_PLACEMENT_3D('',#544,#456,#457);
#358=AXIS2_PLACEMENT_3D('',#546,#458,#459);
#359=AXIS2_PLACEMENT_3D('',#547,#460,#461);
#360=AXIS2_PLACEMENT_3D('',#549,#462,#463);
#361=AXIS2_PLACEMENT_3D('',#550,#464,#465);
#362=AXIS2_PLACEMENT_3D('',#552,#466,#467);
#363=AXIS2_PLACEMENT_3D('',#553,#468,#469);
#364=AXIS2_PLACEMENT_3D('',#555,#470,#471);
#365=AXIS2_PLACEMENT_3D('',#556,#472,#473);
#366=AXIS2_PLACEMENT_3D('',#558,#474,#475);
#367=AXIS2_PLACEMENT_3D('',#559,#476,#477);
#368=DIRECTION('axis',(0.,0.,1.));
#369=DIRECTION('refdir',(1.,0.,0.));
#370=DIRECTION('center_axis',(0.,-1.,0.));
#371=DIRECTION('ref_axis',(0.,0.,-1.));
#372=DIRECTION('center_axis',(0.,-1.,0.));
#373=DIRECTION('ref_axis',(-1.,0.,0.));
#374=DIRECTION('center_axis',(0.,1.,0.));
#375=DIRECTION('ref_axis',(-1.,0.,1.22464679914735E-16));
#376=DIRECTION('center_axis',(0.,-1.,0.));
#377=DIRECTION('ref_axis',(1.,0.,0.));
#378=DIRECTION('center_axis',(0.,-1.,0.));
#379=DIRECTION('ref_axis',(1.,0.,0.));
#380=DIRECTION('center_axis',(0.,1.,0.));
#381=DIRECTION('ref_axis',(1.,0.,0.));
#382=DIRECTION('center_axis',(0.,-1.,0.));
#383=DIRECTION('ref_axis',(1.,0.,0.));
#384=DIRECTION('center_axis',(0.,-1.,0.));
#385=DIRECTION('ref_axis',(0.,0.,-1.));
#386=DIRECTION('center_axis',(0.,-1.,0.));
#387=DIRECTION('ref_axis',(-1.,0.,1.22464679914735E-16));
#388=DIRECTION('center_axis',(0.,1.,0.));
#389=DIRECTION('ref_axis',(-1.,0.,0.));
#390=DIRECTION('center_axis',(0.,-1.,0.));
#391=DIRECTION('ref_axis',(1.,0.,0.));
#392=DIRECTION('center_axis',(0.,-1.,0.));
#393=DIRECTION('ref_axis',(1.,0.,0.));
#394=DIRECTION('center_axis',(0.,1.,0.));
#395=DIRECTION('ref_axis',(1.,0.,0.));
#396=DIRECTION('center_axis',(0.,-1.,0.));
#397=DIRECTION('ref_axis',(1.,0.,0.));
#398=DIRECTION('center_axis',(0.,-1.,0.));
#399=DIRECTION('ref_axis',(0.,0.,-1.));
#400=DIRECTION('center_axis',(0.,-1.,0.));
#401=DIRECTION('ref_axis',(1.,0.,0.));
#402=DIRECTION('center_axis',(0.,-1.,0.));
#403=DIRECTION('ref_axis',(0.,0.,-1.));
#404=DIRECTION('center_axis',(0.,-1.,0.));
#405=DIRECTION('ref_axis',(0.,0.,-1.));
#406=DIRECTION('center_axis',(0.,-1.,0.));
#407=DIRECTION('ref_axis',(1.,0.,0.));
#408=DIRECTION('center_axis',(0.,-1.,0.));
#409=DIRECTION('ref_axis',(1.,0.,0.));
#410=DIRECTION('center_axis',(0.,-1.,0.));
#411=DIRECTION('ref_axis',(1.,0.,0.));
#412=DIRECTION('center_axis',(0.,-1.,0.));
#413=DIRECTION('ref_axis',(0.,0.,-1.));
#414=DIRECTION('center_axis',(0.,-1.,0.));
#415=DIRECTION('ref_axis',(1.,0.,0.));
#416=DIRECTION('center_axis',(0.,1.,0.));
#417=DIRECTION('ref_axis',(1.,0.,0.));
#418=DIRECTION('center_axis',(0.,-1.,0.));
#419=DIRECTION('ref_axis',(1.,0.,0.));
#420=DIRECTION('center_axis',(0.,-1.,0.));
#421=DIRECTION('ref_axis',(0.,0.,-1.));
#422=DIRECTION('center_axis',(0.,-1.,0.));
#423=DIRECTION('ref_axis',(1.,0.,0.));
#424=DIRECTION('center_axis',(0.,-1.,0.));
#425=DIRECTION('ref_axis',(1.,0.,0.));
#426=DIRECTION('center_axis',(0.,-1.,0.));
#427=DIRECTION('ref_axis',(1.,0.,0.));
#428=DIRECTION('center_axis',(0.,-1.,0.));
#429=DIRECTION('ref_axis',(0.,0.,-1.));
#430=DIRECTION('center_axis',(0.,-1.,0.));
#431=DIRECTION('ref_axis',(1.,0.,0.));
#432=DIRECTION('center_axis',(0.,-1.,0.));
#433=DIRECTION('ref_axis',(1.,0.,0.));
#434=DIRECTION('center_axis',(0.,-1.,0.));
#435=DIRECTION('ref_axis',(1.,0.,0.));
#436=DIRECTION('center_axis',(0.,-1.,0.));
#437=DIRECTION('ref_axis',(0.,0.,-1.));
#438=DIRECTION('center_axis',(0.,-1.,0.));
#439=DIRECTION('ref_axis',(1.,0.,0.));
#440=DIRECTION('center_axis',(0.,-1.,0.));
#441=DIRECTION('ref_axis',(1.,0.,0.));
#442=DIRECTION('center_axis',(0.,-1.,0.));
#443=DIRECTION('ref_axis',(1.,0.,0.));
#444=DIRECTION('center_axis',(0.,-1.,0.));
#445=DIRECTION('ref_axis',(0.,0.,-1.));
#446=DIRECTION('center_axis',(0.,-1.,0.));
#447=DIRECTION('ref_axis',(1.,0.,0.));
#448=DIRECTION('center_axis',(0.,-1.,0.));
#449=DIRECTION('ref_axis',(0.,0.,-1.));
#450=DIRECTION('center_axis',(0.,-1.,0.));
#451=DIRECTION('ref_axis',(1.,0.,0.));
#452=DIRECTION('center_axis',(0.,-1.,0.));
#453=DIRECTION('ref_axis',(0.,0.,-1.));
#454=DIRECTION('center_axis',(0.,-1.,0.));
#455=DIRECTION('ref_axis',(1.,0.,0.));
#456=DIRECTION('center_axis',(0.,-1.,0.));
#457=DIRECTION('ref_axis',(0.,0.,-1.));
#458=DIRECTION('center_axis',(0.,-1.,0.));
#459=DIRECTION('ref_axis',(1.,0.,0.));
#460=DIRECTION('center_axis',(0.,-1.,0.));
#461=DIRECTION('ref_axis',(0.,0.,-1.));
#462=DIRECTION('center_axis',(0.,-1.,0.));
#463=DIRECTION('ref_axis',(1.,0.,0.));
#464=DIRECTION('center_axis',(0.,-1.,0.));
#465=DIRECTION('ref_axis',(0.,0.,-1.));
#466=DIRECTION('center_axis',(0.,-1.,0.));
#467=DIRECTION('ref_axis',(1.,0.,0.));
#468=DIRECTION('center_axis',(0.,-1.,0.));
#469=DIRECTION('ref_axis',(0.,0.,-1.));
#470=DIRECTION('center_axis',(0.,-1.,0.));
#471=DIRECTION('ref_axis',(1.,0.,0.));
#472=DIRECTION('center_axis',(0.,-1.,0.));
#473=DIRECTION('ref_axis',(1.,0.,0.));
#474=DIRECTION('center_axis',(0.,-1.,0.));
#475=DIRECTION('ref_axis',(1.,0.,0.));
#476=DIRECTION('center_axis',(0.,-1.,0.));
#477=DIRECTION('ref_axis',(0.,0.,-1.));
#478=CARTESIAN_POINT('',(0.,0.,0.));
#479=CARTESIAN_POINT('Origin',(0.,996.197561338236,0.));
#480=CARTESIAN_POINT('',(67.9428932188134,996.904668119422,-9.86076131526265E-31));
#481=CARTESIAN_POINT('Origin',(0.,996.904668119422,-8.32060467052303E-15));
#482=CARTESIAN_POINT('',(67.65,996.197561338236,-1.65694711924637E-14));
#483=CARTESIAN_POINT('Origin',(0.,996.197561338236,0.));
#484=CARTESIAN_POINT('Origin',(0.,501.805887450304,0.));
#485=CARTESIAN_POINT('',(67.65,7.,0.));
#486=CARTESIAN_POINT('Origin',(0.,7.00000000000003,0.));
#487=CARTESIAN_POINT('Origin',(0.,998.915328291202,0.));
#488=CARTESIAN_POINT('',(72.2571067811866,1001.2188816818,0.));
#489=CARTESIAN_POINT('Origin',(0.,1001.2188816818,0.));
#490=CARTESIAN_POINT('Origin',(0.,997.685786437627,0.));
#491=CARTESIAN_POINT('',(62.35,997.685786437627,0.));
#492=CARTESIAN_POINT('Origin',(0.,997.685786437627,0.));
#493=CARTESIAN_POINT('',(62.6428932188134,998.392893218813,-1.53430837339499E-14));
#494=CARTESIAN_POINT('Origin',(0.,998.392893218813,-7.67154186697493E-15));
#495=CARTESIAN_POINT('Origin',(0.,997.355887450304,0.));
#496=CARTESIAN_POINT('',(62.35,0.,0.));
#497=CARTESIAN_POINT('Origin',(0.,0.,0.));
#498=CARTESIAN_POINT('Origin',(0.,1000.65355339059,0.));
#499=CARTESIAN_POINT('',(67.4571067811865,1003.20710678119,0.));
#500=CARTESIAN_POINT('Origin',(0.,1003.20710678119,0.));
#501=CARTESIAN_POINT('Origin',(0.,7.00000000000003,0.));
#502=CARTESIAN_POINT('',(65.396794344809,0.,0.));
#503=CARTESIAN_POINT('Origin',(0.,0.,0.));
#504=CARTESIAN_POINT('Origin',(62.35,0.,0.));
#505=CARTESIAN_POINT('Origin',(0.,1003.91421356237,0.));
#506=CARTESIAN_POINT('',(67.75,1003.91421356237,0.));
#507=CARTESIAN_POINT('Origin',(0.,1003.91421356237,0.));
#508=CARTESIAN_POINT('Origin',(0.,1030.96648886801,0.));
#509=CARTESIAN_POINT('',(67.75,1040.3212028354,0.));
#510=CARTESIAN_POINT('Origin',(0.,1040.3212028354,0.));
#511=CARTESIAN_POINT('Origin',(0.,1040.3212028354,0.));
#512=CARTESIAN_POINT('',(68.6628442572523,1041.3173975335,0.));
#513=CARTESIAN_POINT('Origin',(0.,1041.3173975335,0.));
#514=CARTESIAN_POINT('Origin',(0.,1041.5,0.));
#515=CARTESIAN_POINT('',(72.8371557427477,1041.6826024665,0.));
#516=CARTESIAN_POINT('Origin',(0.,1041.6826024665,0.));
#517=CARTESIAN_POINT('Origin',(0.,1042.67879716459,0.));
#518=CARTESIAN_POINT('',(73.75,1042.67879716459,0.));
#519=CARTESIAN_POINT('Origin',(0.,1042.67879716459,0.));
#520=CARTESIAN_POINT('Origin',(0.,1047.75329194132,0.));
#521=CARTESIAN_POINT('',(73.75,1052.82778671805,0.));
#522=CARTESIAN_POINT('Origin',(0.,1052.82778671805,0.));
#523=CARTESIAN_POINT('Origin',(0.,1052.82778671805,0.));
#524=CARTESIAN_POINT('',(72.8718693434051,1053.82033286969,0.));
#525=CARTESIAN_POINT('Origin',(0.,1053.82033286969,0.));
#526=CARTESIAN_POINT('Origin',(0.,1054.,0.));
#527=CARTESIAN_POINT('',(69.9453266414871,1054.17966713031,0.));
#528=CARTESIAN_POINT('Origin',(0.,1054.17966713031,0.));
#529=CARTESIAN_POINT('Origin',(0.,1056.66103250941,0.));
#530=CARTESIAN_POINT('',(67.75,1056.66103250941,0.));
#531=CARTESIAN_POINT('Origin',(0.,1056.66103250941,0.));
#532=CARTESIAN_POINT('Origin',(0.,1059.33051625471,0.));
#533=CARTESIAN_POINT('',(67.75,1062.,0.));
#534=CARTESIAN_POINT('Origin',(0.,1062.,0.));
#535=CARTESIAN_POINT('Origin',(0.,1062.,0.));
#536=CARTESIAN_POINT('',(68.75,1063.,0.));
#537=CARTESIAN_POINT('Origin',(0.,1063.,0.));
#538=CARTESIAN_POINT('Origin',(0.,1059.5,0.));
#539=CARTESIAN_POINT('',(72.0838325201233,1060.56562691772,0.));
#540=CARTESIAN_POINT('Origin',(0.,1060.56562691772,0.));
#541=CARTESIAN_POINT('Origin',(0.,1062.08795108589,0.));
#542=CARTESIAN_POINT('',(74.5735194817842,1057.63443730308,0.));
#543=CARTESIAN_POINT('Origin',(0.,1057.63443730308,0.));
#544=CARTESIAN_POINT('Origin',(0.,1053.18092352027,0.));
#545=CARTESIAN_POINT('',(77.23249591476,1054.00329194132,0.));
#546=CARTESIAN_POINT('Origin',(0.,1054.00329194132,0.));
#547=CARTESIAN_POINT('Origin',(0.,1047.75329194132,0.));
#548=CARTESIAN_POINT('',(77.23249591476,1041.50329194132,0.));
#549=CARTESIAN_POINT('Origin',(0.,1041.50329194132,0.));
#550=CARTESIAN_POINT('Origin',(0.,1042.32566036237,0.));
#551=CARTESIAN_POINT('',(74.9252942787774,1038.06996771875,0.));
#552=CARTESIAN_POINT('Origin',(0.,1038.06996771875,0.));
#553=CARTESIAN_POINT('Origin',(0.,1033.81427507513,0.));
#554=CARTESIAN_POINT('',(72.55,1033.81427507513,0.));
#555=CARTESIAN_POINT('Origin',(0.,1033.81427507513,0.));
#556=CARTESIAN_POINT('Origin',(0.,1008.98033685764,0.));
#557=CARTESIAN_POINT('',(72.55,1001.92598846298,0.));
#558=CARTESIAN_POINT('Origin',(0.,1001.92598846298,0.));
#559=CARTESIAN_POINT('Origin',(0.,1001.92598846298,0.));
#560=UNCERTAINTY_MEASURE_WITH_UNIT(LENGTH_MEASURE(0.01),#564,
'DISTANCE_ACCURACY_VALUE',
'Maximum model space distance between geometric entities at asserted c
onnectivities');
#561=UNCERTAINTY_MEASURE_WITH_UNIT(LENGTH_MEASURE(1.E-6),#564,
'DISTANCE_ACCURACY_VALUE',
'Maximum model space distance between geometric entities at asserted c
onnectivities');
#562=(
GEOMETRIC_REPRESENTATION_CONTEXT(3)
GLOBAL_UNCERTAINTY_ASSIGNED_CONTEXT((#560))
GLOBAL_UNIT_ASSIGNED_CONTEXT((#564,#567,#565))
REPRESENTATION_CONTEXT('','3D')
);
#563=(
GEOMETRIC_REPRESENTATION_CONTEXT(3)
GLOBAL_UNCERTAINTY_ASSIGNED_CONTEXT((#561))
GLOBAL_UNIT_ASSIGNED_CONTEXT((#564,#567,#565))
REPRESENTATION_CONTEXT('','3D')
);
#564=(
LENGTH_UNIT()
NAMED_UNIT(*)
SI_UNIT(.MILLI.,.METRE.)
);
#565=(
NAMED_UNIT(*)
SI_UNIT($,.STERADIAN.)
SOLID_ANGLE_UNIT()
);
#566=DIMENSIONAL_EXPONENTS(0.,0.,0.,0.,0.,0.,0.);
#567=(
CONVERSION_BASED_UNIT('degree',#569)
NAMED_UNIT(#566)
PLANE_ANGLE_UNIT()
);
#568=(
NAMED_UNIT(*)
PLANE_ANGLE_UNIT()
SI_UNIT($,.RADIAN.)
);
#569=PLANE_ANGLE_MEASURE_WITH_UNIT(PLANE_ANGLE_MEASURE(0.01745329252),#568);
#570=SHAPE_DEFINITION_REPRESENTATION(#571,#572);
#571=PRODUCT_DEFINITION_SHAPE('',$,#574);
#572=SHAPE_REPRESENTATION('',(#313),#562);
#573=PRODUCT_DEFINITION_CONTEXT('part definition',#578,'design');
#574=PRODUCT_DEFINITION(
'336040 SKOLANsafeEM Passl\X\E4ngen DN_OD 135x1000',
'336040 SKOLANsafeEM Passl\X\E4ngen DN_OD 135x1000',#575,#573);
#575=PRODUCT_DEFINITION_FORMATION('',$,#580);
#576=PRODUCT_RELATED_PRODUCT_CATEGORY(
'336040 SKOLANsafeEM Passl\X\E4ngen DN_OD 135x1000',
'336040 SKOLANsafeEM Passl\X\E4ngen DN_OD 135x1000',(#580));
#577=APPLICATION_PROTOCOL_DEFINITION('international standard',
'automotive_design',2009,#578);
#578=APPLICATION_CONTEXT(
'Core Data for Automotive Mechanical Design Process');
#579=PRODUCT_CONTEXT('part definition',#578,'mechanical');
#580=PRODUCT('336040 SKOLANsafeEM Passl\X\E4ngen DN_OD 135x1000',
'336040 SKOLANsafeEM Passl\X\E4ngen DN_OD 135x1000',$,(#579));
#581=PRESENTATION_STYLE_ASSIGNMENT((#582));
#582=SURFACE_STYLE_USAGE(.BOTH.,#583);
#583=SURFACE_SIDE_STYLE('',(#584));
#584=SURFACE_STYLE_FILL_AREA(#585);
#585=FILL_AREA_STYLE('',(#586));
#586=FILL_AREA_STYLE_COLOUR('',#587);
#587=COLOUR_RGB('',0.749019607843137,0.749019607843137,0.749019607843137);
ENDSEC;
END-ISO-10303-21;
