ISO-10303-21;
HEADER;
/* Generated by software containing ST-Developer
 * from STEP Tools, Inc. (www.steptools.com) 
 */

FILE_DESCRIPTION(
/* description */ (''),
/* implementation_level */ '2;1');

FILE_NAME(
/* name */ 
'Y:\\ACad-Dateien\\Ostendorf\\Skolan Safe\\Kundenzeichnung\\333620 SKO
LANsafeM Muffenstopfen DN_OD 78.stp',
/* time_stamp */ '2018-01-09T10:35:16+01:00',
/* author */ ('user1'),
/* organization */ (''),
/* preprocessor_version */ 'ST-DEVELOPER v16.1',
/* originating_system */ 'Autodesk Inventor 2016',
/* authorisation */ '');

FILE_SCHEMA (('AUTOMOTIVE_DESIGN { 1 0 10303 214 3 1 1 }'));
ENDSEC;

DATA;
#10=MECHANICAL_DESIGN_GEOMETRIC_PRESENTATION_REPRESENTATION('',(#13),#229);
#11=SHAPE_REPRESENTATION_RELATIONSHIP('SRR','None',#238,#12);
#12=ADVANCED_BREP_SHAPE_REPRESENTATION('',(#14),#228);
#13=STYLED_ITEM('',(#247),#14);
#14=MANIFOLD_SOLID_BREP('Volumenk\X\F6rper1',#127);
#15=CYLINDRICAL_SURFACE('',#133,39.);
#16=CYLINDRICAL_SURFACE('',#137,43.5);
#17=CYLINDRICAL_SURFACE('',#141,39.);
#18=CYLINDRICAL_SURFACE('',#147,34.3);
#19=FACE_BOUND('',#43,.T.);
#20=FACE_BOUND('',#45,.T.);
#21=FACE_BOUND('',#47,.T.);
#22=FACE_BOUND('',#49,.T.);
#23=FACE_BOUND('',#51,.T.);
#24=FACE_BOUND('',#53,.T.);
#25=FACE_BOUND('',#55,.T.);
#26=FACE_BOUND('',#57,.T.);
#27=FACE_BOUND('',#59,.T.);
#28=TOROIDAL_SURFACE('',#131,37.,2.00000000000001);
#29=TOROIDAL_SURFACE('',#143,27.,12.);
#30=FACE_OUTER_BOUND('',#41,.T.);
#31=FACE_OUTER_BOUND('',#42,.T.);
#32=FACE_OUTER_BOUND('',#44,.T.);
#33=FACE_OUTER_BOUND('',#46,.T.);
#34=FACE_OUTER_BOUND('',#48,.T.);
#35=FACE_OUTER_BOUND('',#50,.T.);
#36=FACE_OUTER_BOUND('',#52,.T.);
#37=FACE_OUTER_BOUND('',#54,.T.);
#38=FACE_OUTER_BOUND('',#56,.T.);
#39=FACE_OUTER_BOUND('',#58,.T.);
#40=FACE_OUTER_BOUND('',#60,.T.);
#41=EDGE_LOOP('',(#91));
#42=EDGE_LOOP('',(#92));
#43=EDGE_LOOP('',(#93));
#44=EDGE_LOOP('',(#94));
#45=EDGE_LOOP('',(#95));
#46=EDGE_LOOP('',(#96));
#47=EDGE_LOOP('',(#97));
#48=EDGE_LOOP('',(#98));
#49=EDGE_LOOP('',(#99));
#50=EDGE_LOOP('',(#100));
#51=EDGE_LOOP('',(#101));
#52=EDGE_LOOP('',(#102));
#53=EDGE_LOOP('',(#103));
#54=EDGE_LOOP('',(#104));
#55=EDGE_LOOP('',(#105));
#56=EDGE_LOOP('',(#106));
#57=EDGE_LOOP('',(#107));
#58=EDGE_LOOP('',(#108));
#59=EDGE_LOOP('',(#109));
#60=EDGE_LOOP('',(#110));
#61=CIRCLE('',#130,37.);
#62=CIRCLE('',#132,39.);
#63=CIRCLE('',#134,39.);
#64=CIRCLE('',#136,43.5);
#65=CIRCLE('',#138,43.5);
#66=CIRCLE('',#140,39.);
#67=CIRCLE('',#142,39.);
#68=CIRCLE('',#144,36.746794344809);
#69=CIRCLE('',#146,34.3);
#70=CIRCLE('',#148,34.3);
#71=VERTEX_POINT('',#196);
#72=VERTEX_POINT('',#199);
#73=VERTEX_POINT('',#202);
#74=VERTEX_POINT('',#205);
#75=VERTEX_POINT('',#208);
#76=VERTEX_POINT('',#211);
#77=VERTEX_POINT('',#214);
#78=VERTEX_POINT('',#217);
#79=VERTEX_POINT('',#220);
#80=VERTEX_POINT('',#223);
#81=EDGE_CURVE('',#71,#71,#61,.T.);
#82=EDGE_CURVE('',#72,#72,#62,.T.);
#83=EDGE_CURVE('',#73,#73,#63,.T.);
#84=EDGE_CURVE('',#74,#74,#64,.T.);
#85=EDGE_CURVE('',#75,#75,#65,.T.);
#86=EDGE_CURVE('',#76,#76,#66,.T.);
#87=EDGE_CURVE('',#77,#77,#67,.T.);
#88=EDGE_CURVE('',#78,#78,#68,.T.);
#89=EDGE_CURVE('',#79,#79,#69,.T.);
#90=EDGE_CURVE('',#80,#80,#70,.T.);
#91=ORIENTED_EDGE('',*,*,#81,.F.);
#92=ORIENTED_EDGE('',*,*,#81,.T.);
#93=ORIENTED_EDGE('',*,*,#82,.F.);
#94=ORIENTED_EDGE('',*,*,#82,.T.);
#95=ORIENTED_EDGE('',*,*,#83,.F.);
#96=ORIENTED_EDGE('',*,*,#84,.F.);
#97=ORIENTED_EDGE('',*,*,#83,.T.);
#98=ORIENTED_EDGE('',*,*,#84,.T.);
#99=ORIENTED_EDGE('',*,*,#85,.F.);
#100=ORIENTED_EDGE('',*,*,#85,.T.);
#101=ORIENTED_EDGE('',*,*,#86,.F.);
#102=ORIENTED_EDGE('',*,*,#86,.T.);
#103=ORIENTED_EDGE('',*,*,#87,.F.);
#104=ORIENTED_EDGE('',*,*,#87,.T.);
#105=ORIENTED_EDGE('',*,*,#88,.F.);
#106=ORIENTED_EDGE('',*,*,#88,.T.);
#107=ORIENTED_EDGE('',*,*,#89,.F.);
#108=ORIENTED_EDGE('',*,*,#89,.T.);
#109=ORIENTED_EDGE('',*,*,#90,.F.);
#110=ORIENTED_EDGE('',*,*,#90,.T.);
#111=PLANE('',#129);
#112=PLANE('',#135);
#113=PLANE('',#139);
#114=PLANE('',#145);
#115=PLANE('',#149);
#116=ADVANCED_FACE('',(#30),#111,.T.);
#117=ADVANCED_FACE('',(#31,#19),#28,.T.);
#118=ADVANCED_FACE('',(#32,#20),#15,.T.);
#119=ADVANCED_FACE('',(#33,#21),#112,.T.);
#120=ADVANCED_FACE('',(#34,#22),#16,.T.);
#121=ADVANCED_FACE('',(#35,#23),#113,.T.);
#122=ADVANCED_FACE('',(#36,#24),#17,.T.);
#123=ADVANCED_FACE('',(#37,#25),#29,.T.);
#124=ADVANCED_FACE('',(#38,#26),#114,.T.);
#125=ADVANCED_FACE('',(#39,#27),#18,.F.);
#126=ADVANCED_FACE('',(#40),#115,.T.);
#127=CLOSED_SHELL('',(#116,#117,#118,#119,#120,#121,#122,#123,#124,#125,
#126));
#128=AXIS2_PLACEMENT_3D('placement',#194,#150,#151);
#129=AXIS2_PLACEMENT_3D('',#195,#152,#153);
#130=AXIS2_PLACEMENT_3D('',#197,#154,#155);
#131=AXIS2_PLACEMENT_3D('',#198,#156,#157);
#132=AXIS2_PLACEMENT_3D('',#200,#158,#159);
#133=AXIS2_PLACEMENT_3D('',#201,#160,#161);
#134=AXIS2_PLACEMENT_3D('',#203,#162,#163);
#135=AXIS2_PLACEMENT_3D('',#204,#164,#165);
#136=AXIS2_PLACEMENT_3D('',#206,#166,#167);
#137=AXIS2_PLACEMENT_3D('',#207,#168,#169);
#138=AXIS2_PLACEMENT_3D('',#209,#170,#171);
#139=AXIS2_PLACEMENT_3D('',#210,#172,#173);
#140=AXIS2_PLACEMENT_3D('',#212,#174,#175);
#141=AXIS2_PLACEMENT_3D('',#213,#176,#177);
#142=AXIS2_PLACEMENT_3D('',#215,#178,#179);
#143=AXIS2_PLACEMENT_3D('',#216,#180,#181);
#144=AXIS2_PLACEMENT_3D('',#218,#182,#183);
#145=AXIS2_PLACEMENT_3D('',#219,#184,#185);
#146=AXIS2_PLACEMENT_3D('',#221,#186,#187);
#147=AXIS2_PLACEMENT_3D('',#222,#188,#189);
#148=AXIS2_PLACEMENT_3D('',#224,#190,#191);
#149=AXIS2_PLACEMENT_3D('',#225,#192,#193);
#150=DIRECTION('axis',(0.,0.,1.));
#151=DIRECTION('refdir',(1.,0.,0.));
#152=DIRECTION('center_axis',(0.,1.,0.));
#153=DIRECTION('ref_axis',(0.,0.,1.));
#154=DIRECTION('center_axis',(0.,-1.,0.));
#155=DIRECTION('ref_axis',(1.,0.,0.));
#156=DIRECTION('center_axis',(0.,-1.,0.));
#157=DIRECTION('ref_axis',(0.,0.,-1.));
#158=DIRECTION('center_axis',(0.,-1.,0.));
#159=DIRECTION('ref_axis',(1.,0.,0.));
#160=DIRECTION('center_axis',(0.,-1.,0.));
#161=DIRECTION('ref_axis',(1.,0.,0.));
#162=DIRECTION('center_axis',(0.,-1.,0.));
#163=DIRECTION('ref_axis',(1.,0.,0.));
#164=DIRECTION('center_axis',(0.,1.,0.));
#165=DIRECTION('ref_axis',(0.,0.,1.));
#166=DIRECTION('center_axis',(0.,-1.,0.));
#167=DIRECTION('ref_axis',(1.,0.,0.));
#168=DIRECTION('center_axis',(0.,-1.,0.));
#169=DIRECTION('ref_axis',(1.,0.,0.));
#170=DIRECTION('center_axis',(0.,-1.,0.));
#171=DIRECTION('ref_axis',(1.,0.,0.));
#172=DIRECTION('center_axis',(0.,-1.,0.));
#173=DIRECTION('ref_axis',(0.,0.,-1.));
#174=DIRECTION('center_axis',(0.,-1.,0.));
#175=DIRECTION('ref_axis',(1.,0.,0.));
#176=DIRECTION('center_axis',(0.,-1.,0.));
#177=DIRECTION('ref_axis',(1.,0.,0.));
#178=DIRECTION('center_axis',(0.,-1.,0.));
#179=DIRECTION('ref_axis',(1.,0.,0.));
#180=DIRECTION('center_axis',(0.,-1.,0.));
#181=DIRECTION('ref_axis',(0.,0.,-1.));
#182=DIRECTION('center_axis',(0.,-1.,0.));
#183=DIRECTION('ref_axis',(1.,0.,0.));
#184=DIRECTION('center_axis',(0.,-1.,0.));
#185=DIRECTION('ref_axis',(0.,0.,-1.));
#186=DIRECTION('center_axis',(0.,-1.,0.));
#187=DIRECTION('ref_axis',(1.,0.,0.));
#188=DIRECTION('center_axis',(0.,-1.,0.));
#189=DIRECTION('ref_axis',(1.,0.,0.));
#190=DIRECTION('center_axis',(0.,-1.,0.));
#191=DIRECTION('ref_axis',(1.,0.,0.));
#192=DIRECTION('center_axis',(0.,-1.,0.));
#193=DIRECTION('ref_axis',(0.,0.,-1.));
#194=CARTESIAN_POINT('',(0.,0.,0.));
#195=CARTESIAN_POINT('Origin',(37.,68.5,0.));
#196=CARTESIAN_POINT('',(37.,68.5,0.));
#197=CARTESIAN_POINT('Origin',(0.,68.5,0.));
#198=CARTESIAN_POINT('Origin',(0.,66.5,0.));
#199=CARTESIAN_POINT('',(39.,66.5,0.));
#200=CARTESIAN_POINT('Origin',(0.,66.5,0.));
#201=CARTESIAN_POINT('Origin',(0.,60.25,0.));
#202=CARTESIAN_POINT('',(39.,54.,0.));
#203=CARTESIAN_POINT('Origin',(0.,54.,0.));
#204=CARTESIAN_POINT('Origin',(43.5,54.,0.));
#205=CARTESIAN_POINT('',(43.5,54.,0.));
#206=CARTESIAN_POINT('Origin',(0.,54.,0.));
#207=CARTESIAN_POINT('Origin',(0.,52.5,0.));
#208=CARTESIAN_POINT('',(43.5,51.,0.));
#209=CARTESIAN_POINT('Origin',(0.,51.,0.));
#210=CARTESIAN_POINT('Origin',(39.,51.,0.));
#211=CARTESIAN_POINT('',(39.,51.,0.));
#212=CARTESIAN_POINT('Origin',(0.,51.,0.));
#213=CARTESIAN_POINT('Origin',(0.,29.,0.));
#214=CARTESIAN_POINT('',(39.,6.99999999999999,0.));
#215=CARTESIAN_POINT('Origin',(0.,6.99999999999999,0.));
#216=CARTESIAN_POINT('Origin',(0.,6.99999999999999,0.));
#217=CARTESIAN_POINT('',(36.746794344809,0.,0.));
#218=CARTESIAN_POINT('Origin',(0.,0.,0.));
#219=CARTESIAN_POINT('Origin',(34.3,0.,0.));
#220=CARTESIAN_POINT('',(34.3,0.,0.));
#221=CARTESIAN_POINT('Origin',(0.,0.,0.));
#222=CARTESIAN_POINT('Origin',(0.,31.9,0.));
#223=CARTESIAN_POINT('',(34.3,63.8,0.));
#224=CARTESIAN_POINT('Origin',(0.,63.8,0.));
#225=CARTESIAN_POINT('Origin',(0.,63.8,0.));
#226=UNCERTAINTY_MEASURE_WITH_UNIT(LENGTH_MEASURE(0.01),#230,
'DISTANCE_ACCURACY_VALUE',
'Maximum model space distance between geometric entities at asserted c
onnectivities');
#227=UNCERTAINTY_MEASURE_WITH_UNIT(LENGTH_MEASURE(1.E-6),#230,
'DISTANCE_ACCURACY_VALUE',
'Maximum model space distance between geometric entities at asserted c
onnectivities');
#228=(
GEOMETRIC_REPRESENTATION_CONTEXT(3)
GLOBAL_UNCERTAINTY_ASSIGNED_CONTEXT((#226))
GLOBAL_UNIT_ASSIGNED_CONTEXT((#230,#233,#231))
REPRESENTATION_CONTEXT('','3D')
);
#229=(
GEOMETRIC_REPRESENTATION_CONTEXT(3)
GLOBAL_UNCERTAINTY_ASSIGNED_CONTEXT((#227))
GLOBAL_UNIT_ASSIGNED_CONTEXT((#230,#233,#231))
REPRESENTATION_CONTEXT('','3D')
);
#230=(
LENGTH_UNIT()
NAMED_UNIT(*)
SI_UNIT(.MILLI.,.METRE.)
);
#231=(
NAMED_UNIT(*)
SI_UNIT($,.STERADIAN.)
SOLID_ANGLE_UNIT()
);
#232=DIMENSIONAL_EXPONENTS(0.,0.,0.,0.,0.,0.,0.);
#233=(
CONVERSION_BASED_UNIT('degree',#235)
NAMED_UNIT(#232)
PLANE_ANGLE_UNIT()
);
#234=(
NAMED_UNIT(*)
PLANE_ANGLE_UNIT()
SI_UNIT($,.RADIAN.)
);
#235=PLANE_ANGLE_MEASURE_WITH_UNIT(PLANE_ANGLE_MEASURE(0.01745329252),#234);
#236=SHAPE_DEFINITION_REPRESENTATION(#237,#238);
#237=PRODUCT_DEFINITION_SHAPE('',$,#240);
#238=SHAPE_REPRESENTATION('',(#128),#228);
#239=PRODUCT_DEFINITION_CONTEXT('part definition',#244,'design');
#240=PRODUCT_DEFINITION('333620 SKOLANsafeM Muffenstopfen DN_OD 78',
'333620 SKOLANsafeM Muffenstopfen DN_OD 78',#241,#239);
#241=PRODUCT_DEFINITION_FORMATION('',$,#246);
#242=PRODUCT_RELATED_PRODUCT_CATEGORY(
'333620 SKOLANsafeM Muffenstopfen DN_OD 78',
'333620 SKOLANsafeM Muffenstopfen DN_OD 78',(#246));
#243=APPLICATION_PROTOCOL_DEFINITION('international standard',
'automotive_design',2009,#244);
#244=APPLICATION_CONTEXT(
'Core Data for Automotive Mechanical Design Process');
#245=PRODUCT_CONTEXT('part definition',#244,'mechanical');
#246=PRODUCT('333620 SKOLANsafeM Muffenstopfen DN_OD 78',
'333620 SKOLANsafeM Muffenstopfen DN_OD 78',$,(#245));
#247=PRESENTATION_STYLE_ASSIGNMENT((#248));
#248=SURFACE_STYLE_USAGE(.BOTH.,#249);
#249=SURFACE_SIDE_STYLE('',(#250));
#250=SURFACE_STYLE_FILL_AREA(#251);
#251=FILL_AREA_STYLE('',(#252));
#252=FILL_AREA_STYLE_COLOUR('',#253);
#253=COLOUR_RGB('',0.749019607843137,0.749019607843137,0.749019607843137);
ENDSEC;
END-ISO-10303-21;
