ISO-10303-21;
HEADER;
/* Generated by software containing ST-Developer
 * from STEP Tools, Inc. (www.steptools.com) 
 */

FILE_DESCRIPTION(
/* description */ (''),
/* implementation_level */ '2;1');

FILE_NAME(
/* name */ 
'Y:\\ACad-Dateien\\Ostendorf\\KG PVC\\Kundenzeichnung\\222630 KGK Kapp
e DN_OD 160.stp',
/* time_stamp */ '2017-04-18T12:26:55+02:00',
/* author */ ('user1'),
/* organization */ (''),
/* preprocessor_version */ 'ST-DEVELOPER v16.1',
/* originating_system */ 'Autodesk Inventor 2016',
/* authorisation */ '');

FILE_SCHEMA (('AUTOMOTIVE_DESIGN { 1 0 10303 214 3 1 1 }'));
ENDSEC;

DATA;
#10=MECHANICAL_DESIGN_GEOMETRIC_PRESENTATION_REPRESENTATION('',(#13),#169);
#11=SHAPE_REPRESENTATION_RELATIONSHIP('SRR','None',#178,#12);
#12=ADVANCED_BREP_SHAPE_REPRESENTATION('',(#14),#168);
#13=STYLED_ITEM('',(#187),#14);
#14=MANIFOLD_SOLID_BREP('Volumenk\X\F6rper1',#94);
#15=CONICAL_SURFACE('',#100,84.3047528344836,0.109134686135789);
#16=CONICAL_SURFACE('',#104,81.1878221735089,15.);
#17=CONICAL_SURFACE('',#106,80.2987922775523,0.138061852096848);
#18=FACE_BOUND('',#36,.T.);
#19=FACE_BOUND('',#38,.T.);
#20=FACE_BOUND('',#40,.T.);
#21=FACE_BOUND('',#42,.T.);
#22=FACE_BOUND('',#44,.T.);
#23=FACE_BOUND('',#46,.T.);
#24=TOROIDAL_SURFACE('',#98,79.2595147392372,5.);
#25=TOROIDAL_SURFACE('',#108,79.347587458271,0.999999999999993);
#26=FACE_OUTER_BOUND('',#34,.T.);
#27=FACE_OUTER_BOUND('',#35,.T.);
#28=FACE_OUTER_BOUND('',#37,.T.);
#29=FACE_OUTER_BOUND('',#39,.T.);
#30=FACE_OUTER_BOUND('',#41,.T.);
#31=FACE_OUTER_BOUND('',#43,.T.);
#32=FACE_OUTER_BOUND('',#45,.T.);
#33=FACE_OUTER_BOUND('',#47,.T.);
#34=EDGE_LOOP('',(#69));
#35=EDGE_LOOP('',(#70));
#36=EDGE_LOOP('',(#71));
#37=EDGE_LOOP('',(#72));
#38=EDGE_LOOP('',(#73));
#39=EDGE_LOOP('',(#74));
#40=EDGE_LOOP('',(#75));
#41=EDGE_LOOP('',(#76));
#42=EDGE_LOOP('',(#77));
#43=EDGE_LOOP('',(#78));
#44=EDGE_LOOP('',(#79));
#45=EDGE_LOOP('',(#80));
#46=EDGE_LOOP('',(#81));
#47=EDGE_LOOP('',(#82));
#48=CIRCLE('',#97,79.2595147392372);
#49=CIRCLE('',#99,84.2595056689672);
#50=CIRCLE('',#101,84.35);
#51=CIRCLE('',#103,82.1256443470179);
#52=CIRCLE('',#105,80.25);
#53=CIRCLE('',#107,80.3475845551047);
#54=CIRCLE('',#109,79.347587458271);
#55=VERTEX_POINT('',#145);
#56=VERTEX_POINT('',#148);
#57=VERTEX_POINT('',#151);
#58=VERTEX_POINT('',#154);
#59=VERTEX_POINT('',#157);
#60=VERTEX_POINT('',#160);
#61=VERTEX_POINT('',#163);
#62=EDGE_CURVE('',#55,#55,#48,.T.);
#63=EDGE_CURVE('',#56,#56,#49,.T.);
#64=EDGE_CURVE('',#57,#57,#50,.T.);
#65=EDGE_CURVE('',#58,#58,#51,.T.);
#66=EDGE_CURVE('',#59,#59,#52,.T.);
#67=EDGE_CURVE('',#60,#60,#53,.T.);
#68=EDGE_CURVE('',#61,#61,#54,.T.);
#69=ORIENTED_EDGE('',*,*,#62,.F.);
#70=ORIENTED_EDGE('',*,*,#62,.T.);
#71=ORIENTED_EDGE('',*,*,#63,.F.);
#72=ORIENTED_EDGE('',*,*,#63,.T.);
#73=ORIENTED_EDGE('',*,*,#64,.F.);
#74=ORIENTED_EDGE('',*,*,#64,.T.);
#75=ORIENTED_EDGE('',*,*,#65,.F.);
#76=ORIENTED_EDGE('',*,*,#65,.T.);
#77=ORIENTED_EDGE('',*,*,#66,.F.);
#78=ORIENTED_EDGE('',*,*,#66,.T.);
#79=ORIENTED_EDGE('',*,*,#67,.F.);
#80=ORIENTED_EDGE('',*,*,#67,.T.);
#81=ORIENTED_EDGE('',*,*,#68,.F.);
#82=ORIENTED_EDGE('',*,*,#68,.T.);
#83=PLANE('',#96);
#84=PLANE('',#102);
#85=PLANE('',#110);
#86=ADVANCED_FACE('',(#26),#83,.T.);
#87=ADVANCED_FACE('',(#27,#18),#24,.T.);
#88=ADVANCED_FACE('',(#28,#19),#15,.T.);
#89=ADVANCED_FACE('',(#29,#20),#84,.T.);
#90=ADVANCED_FACE('',(#30,#21),#16,.F.);
#91=ADVANCED_FACE('',(#31,#22),#17,.F.);
#92=ADVANCED_FACE('',(#32,#23),#25,.F.);
#93=ADVANCED_FACE('',(#33),#85,.T.);
#94=CLOSED_SHELL('',(#86,#87,#88,#89,#90,#91,#92,#93));
#95=AXIS2_PLACEMENT_3D('placement',#143,#111,#112);
#96=AXIS2_PLACEMENT_3D('',#144,#113,#114);
#97=AXIS2_PLACEMENT_3D('',#146,#115,#116);
#98=AXIS2_PLACEMENT_3D('',#147,#117,#118);
#99=AXIS2_PLACEMENT_3D('',#149,#119,#120);
#100=AXIS2_PLACEMENT_3D('',#150,#121,#122);
#101=AXIS2_PLACEMENT_3D('',#152,#123,#124);
#102=AXIS2_PLACEMENT_3D('',#153,#125,#126);
#103=AXIS2_PLACEMENT_3D('',#155,#127,#128);
#104=AXIS2_PLACEMENT_3D('',#156,#129,#130);
#105=AXIS2_PLACEMENT_3D('',#158,#131,#132);
#106=AXIS2_PLACEMENT_3D('',#159,#133,#134);
#107=AXIS2_PLACEMENT_3D('',#161,#135,#136);
#108=AXIS2_PLACEMENT_3D('',#162,#137,#138);
#109=AXIS2_PLACEMENT_3D('',#164,#139,#140);
#110=AXIS2_PLACEMENT_3D('',#165,#141,#142);
#111=DIRECTION('axis',(0.,0.,1.));
#112=DIRECTION('refdir',(1.,0.,0.));
#113=DIRECTION('center_axis',(2.93475039143954E-35,1.,0.));
#114=DIRECTION('ref_axis',(0.,0.,1.));
#115=DIRECTION('center_axis',(-2.93475039143954E-35,-1.,0.));
#116=DIRECTION('ref_axis',(1.,-2.93475039143954E-35,0.));
#117=DIRECTION('center_axis',(-2.93475039143954E-35,-1.,0.));
#118=DIRECTION('ref_axis',(0.,0.,-1.));
#119=DIRECTION('center_axis',(-2.93475039143954E-35,-1.,0.));
#120=DIRECTION('ref_axis',(1.,-2.93475039143954E-35,0.));
#121=DIRECTION('center_axis',(-2.93475039143954E-35,-1.,0.));
#122=DIRECTION('ref_axis',(1.,0.,0.));
#123=DIRECTION('center_axis',(-2.93475039143954E-35,-1.,0.));
#124=DIRECTION('ref_axis',(1.,-2.93475039143954E-35,0.));
#125=DIRECTION('center_axis',(-2.93475039143954E-35,-1.,0.));
#126=DIRECTION('ref_axis',(0.,0.,-1.));
#127=DIRECTION('center_axis',(-2.93475039143954E-35,-1.,0.));
#128=DIRECTION('ref_axis',(1.,-2.93475039143954E-35,0.));
#129=DIRECTION('center_axis',(-2.93475039143954E-35,-1.,0.));
#130=DIRECTION('ref_axis',(1.,0.,0.));
#131=DIRECTION('center_axis',(-2.93475039143954E-35,-1.,0.));
#132=DIRECTION('ref_axis',(1.,-2.93475039143954E-35,0.));
#133=DIRECTION('center_axis',(2.93475039143954E-35,1.,0.));
#134=DIRECTION('ref_axis',(1.,0.,0.));
#135=DIRECTION('center_axis',(-2.93475039143954E-35,-1.,0.));
#136=DIRECTION('ref_axis',(1.,-2.93475039143954E-35,0.));
#137=DIRECTION('center_axis',(-2.93475039143954E-35,-1.,0.));
#138=DIRECTION('ref_axis',(0.,0.,-1.));
#139=DIRECTION('center_axis',(-2.93475039143954E-35,-1.,0.));
#140=DIRECTION('ref_axis',(1.,-2.93475039143954E-35,0.));
#141=DIRECTION('center_axis',(-2.93475039143954E-35,-1.,0.));
#142=DIRECTION('ref_axis',(0.,0.,-1.));
#143=CARTESIAN_POINT('',(0.,0.,0.));
#144=CARTESIAN_POINT('Origin',(79.2595147392372,52.5,0.));
#145=CARTESIAN_POINT('',(79.2595147392372,52.5,0.));
#146=CARTESIAN_POINT('Origin',(1.54074395550576E-33,52.5,0.));
#147=CARTESIAN_POINT('Origin',(1.39400643593378E-33,47.5,0.));
#148=CARTESIAN_POINT('',(84.2595056689672,47.5095237922471,0.));
#149=CARTESIAN_POINT('Origin',(1.39428593546403E-33,47.5095237922471,0.));
#150=CARTESIAN_POINT('Origin',(6.97142967732017E-34,23.7547618961236,0.));
#151=CARTESIAN_POINT('',(84.35,4.44089209850063E-15,0.));
#152=CARTESIAN_POINT('Origin',(0.,0.,0.));
#153=CARTESIAN_POINT('Origin',(82.1256443470179,0.,0.));
#154=CARTESIAN_POINT('',(82.1256443470179,0.,0.));
#155=CARTESIAN_POINT('Origin',(0.,0.,0.));
#156=CARTESIAN_POINT('Origin',(1.02716263700384E-34,3.5,0.));
#157=CARTESIAN_POINT('',(80.25,7.,0.));
#158=CARTESIAN_POINT('Origin',(2.05432527400768E-34,7.,0.));
#159=CARTESIAN_POINT('Origin',(7.99684123331476E-34,27.2487951842207,0.));
#160=CARTESIAN_POINT('',(80.3475845551047,47.4975903684414,0.));
#161=CARTESIAN_POINT('Origin',(1.39393571926218E-33,47.4975903684414,0.));
#162=CARTESIAN_POINT('Origin',(1.39400643593378E-33,47.5,0.));
#163=CARTESIAN_POINT('',(79.347587458271,48.5,0.));
#164=CARTESIAN_POINT('Origin',(1.42335393984818E-33,48.5,0.));
#165=CARTESIAN_POINT('Origin',(0.,48.5,0.));
#166=UNCERTAINTY_MEASURE_WITH_UNIT(LENGTH_MEASURE(0.01),#170,
'DISTANCE_ACCURACY_VALUE',
'Maximum model space distance between geometric entities at asserted c
onnectivities');
#167=UNCERTAINTY_MEASURE_WITH_UNIT(LENGTH_MEASURE(1.E-6),#170,
'DISTANCE_ACCURACY_VALUE',
'Maximum model space distance between geometric entities at asserted c
onnectivities');
#168=(
GEOMETRIC_REPRESENTATION_CONTEXT(3)
GLOBAL_UNCERTAINTY_ASSIGNED_CONTEXT((#166))
GLOBAL_UNIT_ASSIGNED_CONTEXT((#170,#173,#171))
REPRESENTATION_CONTEXT('','3D')
);
#169=(
GEOMETRIC_REPRESENTATION_CONTEXT(3)
GLOBAL_UNCERTAINTY_ASSIGNED_CONTEXT((#167))
GLOBAL_UNIT_ASSIGNED_CONTEXT((#170,#173,#171))
REPRESENTATION_CONTEXT('','3D')
);
#170=(
LENGTH_UNIT()
NAMED_UNIT(*)
SI_UNIT(.MILLI.,.METRE.)
);
#171=(
NAMED_UNIT(*)
SI_UNIT($,.STERADIAN.)
SOLID_ANGLE_UNIT()
);
#172=DIMENSIONAL_EXPONENTS(0.,0.,0.,0.,0.,0.,0.);
#173=(
CONVERSION_BASED_UNIT('degree',#175)
NAMED_UNIT(#172)
PLANE_ANGLE_UNIT()
);
#174=(
NAMED_UNIT(*)
PLANE_ANGLE_UNIT()
SI_UNIT($,.RADIAN.)
);
#175=PLANE_ANGLE_MEASURE_WITH_UNIT(PLANE_ANGLE_MEASURE(0.01745329252),#174);
#176=SHAPE_DEFINITION_REPRESENTATION(#177,#178);
#177=PRODUCT_DEFINITION_SHAPE('',$,#180);
#178=SHAPE_REPRESENTATION('',(#95),#168);
#179=PRODUCT_DEFINITION_CONTEXT('part definition',#184,'design');
#180=PRODUCT_DEFINITION('222630 KGK Kappe DN_OD 160',
'222630 KGK Kappe DN_OD 160',#181,#179);
#181=PRODUCT_DEFINITION_FORMATION('',$,#186);
#182=PRODUCT_RELATED_PRODUCT_CATEGORY('222630 KGK Kappe DN_OD 160',
'222630 KGK Kappe DN_OD 160',(#186));
#183=APPLICATION_PROTOCOL_DEFINITION('international standard',
'automotive_design',2009,#184);
#184=APPLICATION_CONTEXT(
'Core Data for Automotive Mechanical Design Process');
#185=PRODUCT_CONTEXT('part definition',#184,'mechanical');
#186=PRODUCT('222630 KGK Kappe DN_OD 160','222630 KGK Kappe DN_OD 160',
$,(#185));
#187=PRESENTATION_STYLE_ASSIGNMENT((#188));
#188=SURFACE_STYLE_USAGE(.BOTH.,#189);
#189=SURFACE_SIDE_STYLE('',(#190));
#190=SURFACE_STYLE_FILL_AREA(#191);
#191=FILL_AREA_STYLE('',(#192));
#192=FILL_AREA_STYLE_COLOUR('',#193);
#193=COLOUR_RGB('',0.749019607843137,0.749019607843137,0.749019607843137);
ENDSEC;
END-ISO-10303-21;
