ISO-10303-21;
HEADER;
/* Generated by software containing ST-Developer
 * from STEP Tools, Inc. (www.steptools.com) 
 */

FILE_DESCRIPTION(
/* description */ (''),
/* implementation_level */ '2;1');

FILE_NAME(
/* name */ 
'Y:\\ACad-Dateien\\Ostendorf\\KG PVC\\Kundenzeichnung\\220620 KGM Muff
enstopfen DN_OD 110.stp',
/* time_stamp */ '2017-04-18T09:24:29+02:00',
/* author */ ('user1'),
/* organization */ (''),
/* preprocessor_version */ 'ST-DEVELOPER v16.1',
/* originating_system */ 'Autodesk Inventor 2016',
/* authorisation */ '');

FILE_SCHEMA (('AUTOMOTIVE_DESIGN { 1 0 10303 214 3 1 1 }'));
ENDSEC;

DATA;
#10=MECHANICAL_DESIGN_GEOMETRIC_PRESENTATION_REPRESENTATION('',(#13),#289);
#11=SHAPE_REPRESENTATION_RELATIONSHIP('SRR','None',#298,#12);
#12=ADVANCED_BREP_SHAPE_REPRESENTATION('',(#14),#288);
#13=STYLED_ITEM('',(#307),#14);
#14=MANIFOLD_SOLID_BREP('Volumenk\X\F6rper1',#160);
#15=CYLINDRICAL_SURFACE('',#172,55.1);
#16=CYLINDRICAL_SURFACE('',#184,51.9);
#17=TOROIDAL_SURFACE('',#166,59.0712028354048,0.999999999999998);
#18=TOROIDAL_SURFACE('',#170,55.6,0.499999999999994);
#19=TOROIDAL_SURFACE('',#174,54.6000000000007,0.5);
#20=TOROIDAL_SURFACE('',#178,53.1086413514238,0.499999999999985);
#21=TOROIDAL_SURFACE('',#182,52.4,0.499999999999995);
#22=TOROIDAL_SURFACE('',#186,50.9,0.999999999999988);
#23=FACE_BOUND('',#53,.T.);
#24=FACE_BOUND('',#55,.T.);
#25=FACE_BOUND('',#57,.T.);
#26=FACE_BOUND('',#59,.T.);
#27=FACE_BOUND('',#61,.T.);
#28=FACE_BOUND('',#63,.T.);
#29=FACE_BOUND('',#65,.T.);
#30=FACE_BOUND('',#67,.T.);
#31=FACE_BOUND('',#69,.T.);
#32=FACE_BOUND('',#71,.T.);
#33=FACE_BOUND('',#73,.T.);
#34=FACE_BOUND('',#75,.T.);
#35=CONICAL_SURFACE('',#164,60.1586987667483,5.00000000000006);
#36=CONICAL_SURFACE('',#176,54.3372835888564,15.);
#37=FACE_OUTER_BOUND('',#51,.T.);
#38=FACE_OUTER_BOUND('',#52,.T.);
#39=FACE_OUTER_BOUND('',#54,.T.);
#40=FACE_OUTER_BOUND('',#56,.T.);
#41=FACE_OUTER_BOUND('',#58,.T.);
#42=FACE_OUTER_BOUND('',#60,.T.);
#43=FACE_OUTER_BOUND('',#62,.T.);
#44=FACE_OUTER_BOUND('',#64,.T.);
#45=FACE_OUTER_BOUND('',#66,.T.);
#46=FACE_OUTER_BOUND('',#68,.T.);
#47=FACE_OUTER_BOUND('',#70,.T.);
#48=FACE_OUTER_BOUND('',#72,.T.);
#49=FACE_OUTER_BOUND('',#74,.T.);
#50=FACE_OUTER_BOUND('',#76,.T.);
#51=EDGE_LOOP('',(#116));
#52=EDGE_LOOP('',(#117));
#53=EDGE_LOOP('',(#118));
#54=EDGE_LOOP('',(#119));
#55=EDGE_LOOP('',(#120));
#56=EDGE_LOOP('',(#121));
#57=EDGE_LOOP('',(#122));
#58=EDGE_LOOP('',(#123));
#59=EDGE_LOOP('',(#124));
#60=EDGE_LOOP('',(#125));
#61=EDGE_LOOP('',(#126));
#62=EDGE_LOOP('',(#127));
#63=EDGE_LOOP('',(#128));
#64=EDGE_LOOP('',(#129));
#65=EDGE_LOOP('',(#130));
#66=EDGE_LOOP('',(#131));
#67=EDGE_LOOP('',(#132));
#68=EDGE_LOOP('',(#133));
#69=EDGE_LOOP('',(#134));
#70=EDGE_LOOP('',(#135));
#71=EDGE_LOOP('',(#136));
#72=EDGE_LOOP('',(#137));
#73=EDGE_LOOP('',(#138));
#74=EDGE_LOOP('',(#139));
#75=EDGE_LOOP('',(#140));
#76=EDGE_LOOP('',(#141));
#77=CIRCLE('',#163,60.25);
#78=CIRCLE('',#165,60.0673975334966);
#79=CIRCLE('',#167,59.0712028354048);
#80=CIRCLE('',#169,55.6);
#81=CIRCLE('',#171,55.1);
#82=CIRCLE('',#173,55.1);
#83=CIRCLE('',#175,55.0829629131445);
#84=CIRCLE('',#177,53.5916042645683);
#85=CIRCLE('',#179,53.1086413514238);
#86=CIRCLE('',#181,52.4);
#87=CIRCLE('',#183,51.9);
#88=CIRCLE('',#185,51.9);
#89=CIRCLE('',#187,50.9);
#90=VERTEX_POINT('',#247);
#91=VERTEX_POINT('',#250);
#92=VERTEX_POINT('',#253);
#93=VERTEX_POINT('',#256);
#94=VERTEX_POINT('',#259);
#95=VERTEX_POINT('',#262);
#96=VERTEX_POINT('',#265);
#97=VERTEX_POINT('',#268);
#98=VERTEX_POINT('',#271);
#99=VERTEX_POINT('',#274);
#100=VERTEX_POINT('',#277);
#101=VERTEX_POINT('',#280);
#102=VERTEX_POINT('',#283);
#103=EDGE_CURVE('',#90,#90,#77,.T.);
#104=EDGE_CURVE('',#91,#91,#78,.T.);
#105=EDGE_CURVE('',#92,#92,#79,.T.);
#106=EDGE_CURVE('',#93,#93,#80,.T.);
#107=EDGE_CURVE('',#94,#94,#81,.T.);
#108=EDGE_CURVE('',#95,#95,#82,.T.);
#109=EDGE_CURVE('',#96,#96,#83,.T.);
#110=EDGE_CURVE('',#97,#97,#84,.T.);
#111=EDGE_CURVE('',#98,#98,#85,.T.);
#112=EDGE_CURVE('',#99,#99,#86,.T.);
#113=EDGE_CURVE('',#100,#100,#87,.T.);
#114=EDGE_CURVE('',#101,#101,#88,.T.);
#115=EDGE_CURVE('',#102,#102,#89,.T.);
#116=ORIENTED_EDGE('',*,*,#103,.F.);
#117=ORIENTED_EDGE('',*,*,#103,.T.);
#118=ORIENTED_EDGE('',*,*,#104,.F.);
#119=ORIENTED_EDGE('',*,*,#104,.T.);
#120=ORIENTED_EDGE('',*,*,#105,.F.);
#121=ORIENTED_EDGE('',*,*,#105,.T.);
#122=ORIENTED_EDGE('',*,*,#106,.F.);
#123=ORIENTED_EDGE('',*,*,#106,.T.);
#124=ORIENTED_EDGE('',*,*,#107,.F.);
#125=ORIENTED_EDGE('',*,*,#107,.T.);
#126=ORIENTED_EDGE('',*,*,#108,.F.);
#127=ORIENTED_EDGE('',*,*,#108,.T.);
#128=ORIENTED_EDGE('',*,*,#109,.F.);
#129=ORIENTED_EDGE('',*,*,#109,.T.);
#130=ORIENTED_EDGE('',*,*,#110,.F.);
#131=ORIENTED_EDGE('',*,*,#110,.T.);
#132=ORIENTED_EDGE('',*,*,#111,.F.);
#133=ORIENTED_EDGE('',*,*,#111,.T.);
#134=ORIENTED_EDGE('',*,*,#112,.F.);
#135=ORIENTED_EDGE('',*,*,#112,.T.);
#136=ORIENTED_EDGE('',*,*,#113,.F.);
#137=ORIENTED_EDGE('',*,*,#113,.T.);
#138=ORIENTED_EDGE('',*,*,#114,.F.);
#139=ORIENTED_EDGE('',*,*,#114,.T.);
#140=ORIENTED_EDGE('',*,*,#115,.F.);
#141=ORIENTED_EDGE('',*,*,#115,.T.);
#142=PLANE('',#162);
#143=PLANE('',#168);
#144=PLANE('',#180);
#145=PLANE('',#188);
#146=ADVANCED_FACE('',(#37),#142,.T.);
#147=ADVANCED_FACE('',(#38,#23),#35,.T.);
#148=ADVANCED_FACE('',(#39,#24),#17,.T.);
#149=ADVANCED_FACE('',(#40,#25),#143,.T.);
#150=ADVANCED_FACE('',(#41,#26),#18,.F.);
#151=ADVANCED_FACE('',(#42,#27),#15,.T.);
#152=ADVANCED_FACE('',(#43,#28),#19,.T.);
#153=ADVANCED_FACE('',(#44,#29),#36,.T.);
#154=ADVANCED_FACE('',(#45,#30),#20,.T.);
#155=ADVANCED_FACE('',(#46,#31),#144,.T.);
#156=ADVANCED_FACE('',(#47,#32),#21,.T.);
#157=ADVANCED_FACE('',(#48,#33),#16,.F.);
#158=ADVANCED_FACE('',(#49,#34),#22,.F.);
#159=ADVANCED_FACE('',(#50),#145,.T.);
#160=CLOSED_SHELL('',(#146,#147,#148,#149,#150,#151,#152,#153,#154,#155,
#156,#157,#158,#159));
#161=AXIS2_PLACEMENT_3D('placement',#245,#189,#190);
#162=AXIS2_PLACEMENT_3D('',#246,#191,#192);
#163=AXIS2_PLACEMENT_3D('',#248,#193,#194);
#164=AXIS2_PLACEMENT_3D('',#249,#195,#196);
#165=AXIS2_PLACEMENT_3D('',#251,#197,#198);
#166=AXIS2_PLACEMENT_3D('',#252,#199,#200);
#167=AXIS2_PLACEMENT_3D('',#254,#201,#202);
#168=AXIS2_PLACEMENT_3D('',#255,#203,#204);
#169=AXIS2_PLACEMENT_3D('',#257,#205,#206);
#170=AXIS2_PLACEMENT_3D('',#258,#207,#208);
#171=AXIS2_PLACEMENT_3D('',#260,#209,#210);
#172=AXIS2_PLACEMENT_3D('',#261,#211,#212);
#173=AXIS2_PLACEMENT_3D('',#263,#213,#214);
#174=AXIS2_PLACEMENT_3D('',#264,#215,#216);
#175=AXIS2_PLACEMENT_3D('',#266,#217,#218);
#176=AXIS2_PLACEMENT_3D('',#267,#219,#220);
#177=AXIS2_PLACEMENT_3D('',#269,#221,#222);
#178=AXIS2_PLACEMENT_3D('',#270,#223,#224);
#179=AXIS2_PLACEMENT_3D('',#272,#225,#226);
#180=AXIS2_PLACEMENT_3D('',#273,#227,#228);
#181=AXIS2_PLACEMENT_3D('',#275,#229,#230);
#182=AXIS2_PLACEMENT_3D('',#276,#231,#232);
#183=AXIS2_PLACEMENT_3D('',#278,#233,#234);
#184=AXIS2_PLACEMENT_3D('',#279,#235,#236);
#185=AXIS2_PLACEMENT_3D('',#281,#237,#238);
#186=AXIS2_PLACEMENT_3D('',#282,#239,#240);
#187=AXIS2_PLACEMENT_3D('',#284,#241,#242);
#188=AXIS2_PLACEMENT_3D('',#285,#243,#244);
#189=DIRECTION('axis',(0.,0.,1.));
#190=DIRECTION('refdir',(1.,0.,0.));
#191=DIRECTION('center_axis',(0.,1.,0.));
#192=DIRECTION('ref_axis',(0.,0.,1.));
#193=DIRECTION('center_axis',(0.,-1.,0.));
#194=DIRECTION('ref_axis',(1.,0.,0.));
#195=DIRECTION('center_axis',(0.,1.,0.));
#196=DIRECTION('ref_axis',(1.,0.,0.));
#197=DIRECTION('center_axis',(0.,-1.,0.));
#198=DIRECTION('ref_axis',(1.,0.,0.));
#199=DIRECTION('center_axis',(0.,-1.,0.));
#200=DIRECTION('ref_axis',(0.,0.,-1.));
#201=DIRECTION('center_axis',(0.,-1.,0.));
#202=DIRECTION('ref_axis',(1.,0.,0.));
#203=DIRECTION('center_axis',(0.,-1.,0.));
#204=DIRECTION('ref_axis',(0.,0.,-1.));
#205=DIRECTION('center_axis',(0.,-1.,0.));
#206=DIRECTION('ref_axis',(1.,0.,0.));
#207=DIRECTION('center_axis',(0.,-1.,0.));
#208=DIRECTION('ref_axis',(0.,0.,-1.));
#209=DIRECTION('center_axis',(0.,-1.,0.));
#210=DIRECTION('ref_axis',(1.,0.,0.));
#211=DIRECTION('center_axis',(0.,-1.,0.));
#212=DIRECTION('ref_axis',(1.,0.,0.));
#213=DIRECTION('center_axis',(0.,-1.,0.));
#214=DIRECTION('ref_axis',(1.,0.,0.));
#215=DIRECTION('center_axis',(0.,-1.,0.));
#216=DIRECTION('ref_axis',(0.,0.,-1.));
#217=DIRECTION('center_axis',(0.,-1.,0.));
#218=DIRECTION('ref_axis',(1.,0.,0.));
#219=DIRECTION('center_axis',(0.,1.,0.));
#220=DIRECTION('ref_axis',(1.,0.,0.));
#221=DIRECTION('center_axis',(0.,-1.,0.));
#222=DIRECTION('ref_axis',(1.,0.,0.));
#223=DIRECTION('center_axis',(0.,-1.,0.));
#224=DIRECTION('ref_axis',(0.,0.,-1.));
#225=DIRECTION('center_axis',(0.,-1.,0.));
#226=DIRECTION('ref_axis',(1.,0.,0.));
#227=DIRECTION('center_axis',(0.,-1.,0.));
#228=DIRECTION('ref_axis',(0.,0.,-1.));
#229=DIRECTION('center_axis',(0.,-1.,0.));
#230=DIRECTION('ref_axis',(1.,0.,0.));
#231=DIRECTION('center_axis',(0.,-1.,0.));
#232=DIRECTION('ref_axis',(0.,0.,-1.));
#233=DIRECTION('center_axis',(0.,-1.,0.));
#234=DIRECTION('ref_axis',(1.,0.,0.));
#235=DIRECTION('center_axis',(0.,-1.,0.));
#236=DIRECTION('ref_axis',(1.,0.,0.));
#237=DIRECTION('center_axis',(0.,-1.,0.));
#238=DIRECTION('ref_axis',(1.,0.,0.));
#239=DIRECTION('center_axis',(0.,-1.,0.));
#240=DIRECTION('ref_axis',(0.,0.,-1.));
#241=DIRECTION('center_axis',(0.,-1.,0.));
#242=DIRECTION('ref_axis',(1.,0.,0.));
#243=DIRECTION('center_axis',(0.,-1.,0.));
#244=DIRECTION('ref_axis',(0.,0.,-1.));
#245=CARTESIAN_POINT('',(0.,0.,0.));
#246=CARTESIAN_POINT('Origin',(60.25,40.,0.));
#247=CARTESIAN_POINT('',(60.25,40.,0.));
#248=CARTESIAN_POINT('Origin',(0.,40.,0.));
#249=CARTESIAN_POINT('Origin',(0.,38.9564221286262,0.));
#250=CARTESIAN_POINT('',(60.0673975334966,37.9128442572524,0.));
#251=CARTESIAN_POINT('Origin',(0.,37.9128442572524,0.));
#252=CARTESIAN_POINT('Origin',(0.,38.,0.));
#253=CARTESIAN_POINT('',(59.0712028354048,37.,0.));
#254=CARTESIAN_POINT('Origin',(0.,37.,0.));
#255=CARTESIAN_POINT('Origin',(55.6,37.,0.));
#256=CARTESIAN_POINT('',(55.6,37.,0.));
#257=CARTESIAN_POINT('Origin',(0.,37.,0.));
#258=CARTESIAN_POINT('Origin',(0.,36.5,0.));
#259=CARTESIAN_POINT('',(55.1,36.5,0.));
#260=CARTESIAN_POINT('Origin',(0.,36.5,0.));
#261=CARTESIAN_POINT('Origin',(0.,21.2829131243968,0.));
#262=CARTESIAN_POINT('',(55.1,6.06582624879369,0.));
#263=CARTESIAN_POINT('Origin',(0.,6.06582624879369,0.));
#264=CARTESIAN_POINT('Origin',(0.,6.06582624879361,0.));
#265=CARTESIAN_POINT('',(55.0829629131445,5.93641672624243,0.));
#266=CARTESIAN_POINT('Origin',(0.,5.93641672624243,0.));
#267=CARTESIAN_POINT('Origin',(0.,3.15350360184559,0.));
#268=CARTESIAN_POINT('',(53.5916042645683,0.370590477448741,0.));
#269=CARTESIAN_POINT('Origin',(0.,0.37059047744874,0.));
#270=CARTESIAN_POINT('Origin',(0.,0.499999999999989,0.));
#271=CARTESIAN_POINT('',(53.1086413514238,2.84494650060196E-15,0.));
#272=CARTESIAN_POINT('Origin',(0.,4.44089209850063E-15,0.));
#273=CARTESIAN_POINT('Origin',(52.4,0.,0.));
#274=CARTESIAN_POINT('',(52.4,0.,0.));
#275=CARTESIAN_POINT('Origin',(0.,0.,0.));
#276=CARTESIAN_POINT('Origin',(0.,0.499999999999994,0.));
#277=CARTESIAN_POINT('',(51.9,0.5,0.));
#278=CARTESIAN_POINT('Origin',(0.,0.499999999999998,0.));
#279=CARTESIAN_POINT('Origin',(0.,18.25,0.));
#280=CARTESIAN_POINT('',(51.9,36.,0.));
#281=CARTESIAN_POINT('Origin',(0.,36.,0.));
#282=CARTESIAN_POINT('Origin',(0.,36.,0.));
#283=CARTESIAN_POINT('',(50.9,37.,0.));
#284=CARTESIAN_POINT('Origin',(0.,37.,0.));
#285=CARTESIAN_POINT('Origin',(0.,37.,0.));
#286=UNCERTAINTY_MEASURE_WITH_UNIT(LENGTH_MEASURE(0.01),#290,
'DISTANCE_ACCURACY_VALUE',
'Maximum model space distance between geometric entities at asserted c
onnectivities');
#287=UNCERTAINTY_MEASURE_WITH_UNIT(LENGTH_MEASURE(1.E-6),#290,
'DISTANCE_ACCURACY_VALUE',
'Maximum model space distance between geometric entities at asserted c
onnectivities');
#288=(
GEOMETRIC_REPRESENTATION_CONTEXT(3)
GLOBAL_UNCERTAINTY_ASSIGNED_CONTEXT((#286))
GLOBAL_UNIT_ASSIGNED_CONTEXT((#290,#293,#291))
REPRESENTATION_CONTEXT('','3D')
);
#289=(
GEOMETRIC_REPRESENTATION_CONTEXT(3)
GLOBAL_UNCERTAINTY_ASSIGNED_CONTEXT((#287))
GLOBAL_UNIT_ASSIGNED_CONTEXT((#290,#293,#291))
REPRESENTATION_CONTEXT('','3D')
);
#290=(
LENGTH_UNIT()
NAMED_UNIT(*)
SI_UNIT(.MILLI.,.METRE.)
);
#291=(
NAMED_UNIT(*)
SI_UNIT($,.STERADIAN.)
SOLID_ANGLE_UNIT()
);
#292=DIMENSIONAL_EXPONENTS(0.,0.,0.,0.,0.,0.,0.);
#293=(
CONVERSION_BASED_UNIT('degree',#295)
NAMED_UNIT(#292)
PLANE_ANGLE_UNIT()
);
#294=(
NAMED_UNIT(*)
PLANE_ANGLE_UNIT()
SI_UNIT($,.RADIAN.)
);
#295=PLANE_ANGLE_MEASURE_WITH_UNIT(PLANE_ANGLE_MEASURE(0.01745329252),#294);
#296=SHAPE_DEFINITION_REPRESENTATION(#297,#298);
#297=PRODUCT_DEFINITION_SHAPE('',$,#300);
#298=SHAPE_REPRESENTATION('',(#161),#288);
#299=PRODUCT_DEFINITION_CONTEXT('part definition',#304,'design');
#300=PRODUCT_DEFINITION('220620 KGM Muffenstopfen DN_OD 110',
'220620 KGM Muffenstopfen DN_OD 110',#301,#299);
#301=PRODUCT_DEFINITION_FORMATION('',$,#306);
#302=PRODUCT_RELATED_PRODUCT_CATEGORY(
'220620 KGM Muffenstopfen DN_OD 110',
'220620 KGM Muffenstopfen DN_OD 110',(#306));
#303=APPLICATION_PROTOCOL_DEFINITION('international standard',
'automotive_design',2009,#304);
#304=APPLICATION_CONTEXT(
'Core Data for Automotive Mechanical Design Process');
#305=PRODUCT_CONTEXT('part definition',#304,'mechanical');
#306=PRODUCT('220620 KGM Muffenstopfen DN_OD 110',
'220620 KGM Muffenstopfen DN_OD 110',$,(#305));
#307=PRESENTATION_STYLE_ASSIGNMENT((#308));
#308=SURFACE_STYLE_USAGE(.BOTH.,#309);
#309=SURFACE_SIDE_STYLE('',(#310));
#310=SURFACE_STYLE_FILL_AREA(#311);
#311=FILL_AREA_STYLE('',(#312));
#312=FILL_AREA_STYLE_COLOUR('',#313);
#313=COLOUR_RGB('',0.749019607843137,0.749019607843137,0.749019607843137);
ENDSEC;
END-ISO-10303-21;
