ISO-10303-21;
HEADER;
/* Generated by software containing ST-Developer
 * from STEP Tools, Inc. (www.steptools.com) 
 */

FILE_DESCRIPTION(
/* description */ (''),
/* implementation_level */ '2;1');

FILE_NAME(
/* name */ 
'Y:\\ACad-Dateien\\Ostendorf\\KG PVC\\Kundenzeichnung\\Standardzeichnu
ngen\\220010 KGEM Passl\X\E4ngen SN 4 DN_OD 110x1000.stp',
/* time_stamp */ '2018-01-15T15:53:20+01:00',
/* author */ ('user1'),
/* organization */ (''),
/* preprocessor_version */ 'ST-DEVELOPER v16.1',
/* originating_system */ 'Autodesk Inventor 2016',
/* authorisation */ '');

FILE_SCHEMA (('AUTOMOTIVE_DESIGN { 1 0 10303 214 3 1 1 }'));
ENDSEC;

DATA;
#10=MECHANICAL_DESIGN_GEOMETRIC_PRESENTATION_REPRESENTATION('',(#13),#443);
#11=SHAPE_REPRESENTATION_RELATIONSHIP('SRR','None',#452,#12);
#12=ADVANCED_BREP_SHAPE_REPRESENTATION('',(#14),#442);
#13=STYLED_ITEM('',(#461),#14);
#14=MANIFOLD_SOLID_BREP('Volumenk\X\F6rper1',#246);
#15=PLANE('',#283);
#16=PLANE('',#287);
#17=CONICAL_SURFACE('',#281,54.2711524227069,14.9999999999999);
#18=CONICAL_SURFACE('',#288,56.55,15.);
#19=CONICAL_SURFACE('',#289,53.45,15.);
#20=CYLINDRICAL_SURFACE('',#251,58.025);
#21=CYLINDRICAL_SURFACE('',#256,58.025);
#22=CYLINDRICAL_SURFACE('',#261,60.4);
#23=CYLINDRICAL_SURFACE('',#267,55.325);
#24=CYLINDRICAL_SURFACE('',#271,55.325);
#25=CYLINDRICAL_SURFACE('',#275,62.8);
#26=CYLINDRICAL_SURFACE('',#278,55.0750000000001);
#27=CYLINDRICAL_SURFACE('',#285,51.5750000000001);
#28=FACE_BOUND('',#71,.T.);
#29=FACE_BOUND('',#73,.T.);
#30=FACE_BOUND('',#75,.T.);
#31=FACE_BOUND('',#77,.T.);
#32=FACE_BOUND('',#79,.T.);
#33=FACE_BOUND('',#81,.T.);
#34=FACE_BOUND('',#83,.T.);
#35=FACE_BOUND('',#85,.T.);
#36=FACE_BOUND('',#87,.T.);
#37=FACE_BOUND('',#89,.T.);
#38=FACE_BOUND('',#91,.T.);
#39=FACE_BOUND('',#93,.T.);
#40=FACE_BOUND('',#95,.T.);
#41=FACE_BOUND('',#97,.T.);
#42=FACE_BOUND('',#99,.T.);
#43=FACE_BOUND('',#101,.T.);
#44=FACE_BOUND('',#103,.T.);
#45=FACE_BOUND('',#105,.T.);
#46=FACE_BOUND('',#107,.T.);
#47=FACE_BOUND('',#109,.T.);
#48=FACE_BOUND('',#111,.T.);
#49=FACE_OUTER_BOUND('',#70,.T.);
#50=FACE_OUTER_BOUND('',#72,.T.);
#51=FACE_OUTER_BOUND('',#74,.T.);
#52=FACE_OUTER_BOUND('',#76,.T.);
#53=FACE_OUTER_BOUND('',#78,.T.);
#54=FACE_OUTER_BOUND('',#80,.T.);
#55=FACE_OUTER_BOUND('',#82,.T.);
#56=FACE_OUTER_BOUND('',#84,.T.);
#57=FACE_OUTER_BOUND('',#86,.T.);
#58=FACE_OUTER_BOUND('',#88,.T.);
#59=FACE_OUTER_BOUND('',#90,.T.);
#60=FACE_OUTER_BOUND('',#92,.T.);
#61=FACE_OUTER_BOUND('',#94,.T.);
#62=FACE_OUTER_BOUND('',#96,.T.);
#63=FACE_OUTER_BOUND('',#98,.T.);
#64=FACE_OUTER_BOUND('',#100,.T.);
#65=FACE_OUTER_BOUND('',#102,.T.);
#66=FACE_OUTER_BOUND('',#104,.T.);
#67=FACE_OUTER_BOUND('',#106,.T.);
#68=FACE_OUTER_BOUND('',#108,.T.);
#69=FACE_OUTER_BOUND('',#110,.T.);
#70=EDGE_LOOP('',(#175));
#71=EDGE_LOOP('',(#176));
#72=EDGE_LOOP('',(#177));
#73=EDGE_LOOP('',(#178));
#74=EDGE_LOOP('',(#179));
#75=EDGE_LOOP('',(#180));
#76=EDGE_LOOP('',(#181));
#77=EDGE_LOOP('',(#182));
#78=EDGE_LOOP('',(#183));
#79=EDGE_LOOP('',(#184));
#80=EDGE_LOOP('',(#185));
#81=EDGE_LOOP('',(#186));
#82=EDGE_LOOP('',(#187));
#83=EDGE_LOOP('',(#188));
#84=EDGE_LOOP('',(#189));
#85=EDGE_LOOP('',(#190));
#86=EDGE_LOOP('',(#191));
#87=EDGE_LOOP('',(#192));
#88=EDGE_LOOP('',(#193));
#89=EDGE_LOOP('',(#194));
#90=EDGE_LOOP('',(#195));
#91=EDGE_LOOP('',(#196));
#92=EDGE_LOOP('',(#197));
#93=EDGE_LOOP('',(#198));
#94=EDGE_LOOP('',(#199));
#95=EDGE_LOOP('',(#200));
#96=EDGE_LOOP('',(#201));
#97=EDGE_LOOP('',(#202));
#98=EDGE_LOOP('',(#203));
#99=EDGE_LOOP('',(#204));
#100=EDGE_LOOP('',(#205));
#101=EDGE_LOOP('',(#206));
#102=EDGE_LOOP('',(#207));
#103=EDGE_LOOP('',(#208));
#104=EDGE_LOOP('',(#209));
#105=EDGE_LOOP('',(#210));
#106=EDGE_LOOP('',(#211));
#107=EDGE_LOOP('',(#212));
#108=EDGE_LOOP('',(#213));
#109=EDGE_LOOP('',(#214));
#110=EDGE_LOOP('',(#215));
#111=EDGE_LOOP('',(#216));
#112=CIRCLE('',#249,60.4125);
#113=CIRCLE('',#250,58.025);
#114=CIRCLE('',#252,58.025);
#115=CIRCLE('',#254,58.025);
#116=CIRCLE('',#255,60.4125);
#117=CIRCLE('',#257,58.025);
#118=CIRCLE('',#259,60.4);
#119=CIRCLE('',#260,57.8625);
#120=CIRCLE('',#262,60.4);
#121=CIRCLE('',#264,57.8625);
#122=CIRCLE('',#266,55.325);
#123=CIRCLE('',#268,55.325);
#124=CIRCLE('',#270,55.325);
#125=CIRCLE('',#272,55.325);
#126=CIRCLE('',#274,62.8);
#127=CIRCLE('',#276,62.8);
#128=CIRCLE('',#279,55.075);
#129=CIRCLE('',#280,55.0750000000002);
#130=CIRCLE('',#282,53.4673048454135);
#131=CIRCLE('',#284,51.5750000000001);
#132=CIRCLE('',#286,51.575);
#133=VERTEX_POINT('',#378);
#134=VERTEX_POINT('',#380);
#135=VERTEX_POINT('',#383);
#136=VERTEX_POINT('',#386);
#137=VERTEX_POINT('',#388);
#138=VERTEX_POINT('',#391);
#139=VERTEX_POINT('',#394);
#140=VERTEX_POINT('',#396);
#141=VERTEX_POINT('',#399);
#142=VERTEX_POINT('',#402);
#143=VERTEX_POINT('',#405);
#144=VERTEX_POINT('',#408);
#145=VERTEX_POINT('',#411);
#146=VERTEX_POINT('',#414);
#147=VERTEX_POINT('',#417);
#148=VERTEX_POINT('',#420);
#149=VERTEX_POINT('',#424);
#150=VERTEX_POINT('',#426);
#151=VERTEX_POINT('',#429);
#152=VERTEX_POINT('',#432);
#153=VERTEX_POINT('',#435);
#154=EDGE_CURVE('',#133,#133,#112,.T.);
#155=EDGE_CURVE('',#134,#134,#113,.T.);
#156=EDGE_CURVE('',#135,#135,#114,.T.);
#157=EDGE_CURVE('',#136,#136,#115,.T.);
#158=EDGE_CURVE('',#137,#137,#116,.T.);
#159=EDGE_CURVE('',#138,#138,#117,.T.);
#160=EDGE_CURVE('',#139,#139,#118,.T.);
#161=EDGE_CURVE('',#140,#140,#119,.T.);
#162=EDGE_CURVE('',#141,#141,#120,.T.);
#163=EDGE_CURVE('',#142,#142,#121,.T.);
#164=EDGE_CURVE('',#143,#143,#122,.T.);
#165=EDGE_CURVE('',#144,#144,#123,.T.);
#166=EDGE_CURVE('',#145,#145,#124,.T.);
#167=EDGE_CURVE('',#146,#146,#125,.T.);
#168=EDGE_CURVE('',#147,#147,#126,.T.);
#169=EDGE_CURVE('',#148,#148,#127,.T.);
#170=EDGE_CURVE('',#149,#149,#128,.T.);
#171=EDGE_CURVE('',#150,#150,#129,.T.);
#172=EDGE_CURVE('',#151,#151,#130,.T.);
#173=EDGE_CURVE('',#152,#152,#131,.T.);
#174=EDGE_CURVE('',#153,#153,#132,.T.);
#175=ORIENTED_EDGE('',*,*,#154,.T.);
#176=ORIENTED_EDGE('',*,*,#155,.T.);
#177=ORIENTED_EDGE('',*,*,#156,.F.);
#178=ORIENTED_EDGE('',*,*,#155,.F.);
#179=ORIENTED_EDGE('',*,*,#157,.T.);
#180=ORIENTED_EDGE('',*,*,#158,.T.);
#181=ORIENTED_EDGE('',*,*,#159,.T.);
#182=ORIENTED_EDGE('',*,*,#157,.F.);
#183=ORIENTED_EDGE('',*,*,#160,.T.);
#184=ORIENTED_EDGE('',*,*,#161,.T.);
#185=ORIENTED_EDGE('',*,*,#162,.F.);
#186=ORIENTED_EDGE('',*,*,#160,.F.);
#187=ORIENTED_EDGE('',*,*,#163,.T.);
#188=ORIENTED_EDGE('',*,*,#162,.T.);
#189=ORIENTED_EDGE('',*,*,#164,.T.);
#190=ORIENTED_EDGE('',*,*,#163,.F.);
#191=ORIENTED_EDGE('',*,*,#165,.T.);
#192=ORIENTED_EDGE('',*,*,#164,.F.);
#193=ORIENTED_EDGE('',*,*,#161,.F.);
#194=ORIENTED_EDGE('',*,*,#166,.T.);
#195=ORIENTED_EDGE('',*,*,#167,.F.);
#196=ORIENTED_EDGE('',*,*,#166,.F.);
#197=ORIENTED_EDGE('',*,*,#168,.T.);
#198=ORIENTED_EDGE('',*,*,#154,.F.);
#199=ORIENTED_EDGE('',*,*,#169,.F.);
#200=ORIENTED_EDGE('',*,*,#168,.F.);
#201=ORIENTED_EDGE('',*,*,#158,.F.);
#202=ORIENTED_EDGE('',*,*,#169,.T.);
#203=ORIENTED_EDGE('',*,*,#170,.T.);
#204=ORIENTED_EDGE('',*,*,#171,.F.);
#205=ORIENTED_EDGE('',*,*,#171,.T.);
#206=ORIENTED_EDGE('',*,*,#172,.F.);
#207=ORIENTED_EDGE('',*,*,#172,.T.);
#208=ORIENTED_EDGE('',*,*,#173,.F.);
#209=ORIENTED_EDGE('',*,*,#173,.T.);
#210=ORIENTED_EDGE('',*,*,#174,.F.);
#211=ORIENTED_EDGE('',*,*,#159,.F.);
#212=ORIENTED_EDGE('',*,*,#167,.T.);
#213=ORIENTED_EDGE('',*,*,#156,.T.);
#214=ORIENTED_EDGE('',*,*,#170,.F.);
#215=ORIENTED_EDGE('',*,*,#174,.T.);
#216=ORIENTED_EDGE('',*,*,#165,.F.);
#217=TOROIDAL_SURFACE('',#248,63.025,5.);
#218=TOROIDAL_SURFACE('',#253,63.025,5.);
#219=TOROIDAL_SURFACE('',#258,55.4,5.);
#220=TOROIDAL_SURFACE('',#263,55.4,5.);
#221=TOROIDAL_SURFACE('',#265,60.325,5.);
#222=TOROIDAL_SURFACE('',#269,60.325,5.);
#223=TOROIDAL_SURFACE('',#273,57.8,5.);
#224=TOROIDAL_SURFACE('',#277,57.8,5.);
#225=ADVANCED_FACE('',(#49,#28),#217,.F.);
#226=ADVANCED_FACE('',(#50,#29),#20,.T.);
#227=ADVANCED_FACE('',(#51,#30),#218,.F.);
#228=ADVANCED_FACE('',(#52,#31),#21,.T.);
#229=ADVANCED_FACE('',(#53,#32),#219,.F.);
#230=ADVANCED_FACE('',(#54,#33),#22,.F.);
#231=ADVANCED_FACE('',(#55,#34),#220,.F.);
#232=ADVANCED_FACE('',(#56,#35),#221,.T.);
#233=ADVANCED_FACE('',(#57,#36),#23,.F.);
#234=ADVANCED_FACE('',(#58,#37),#222,.T.);
#235=ADVANCED_FACE('',(#59,#38),#24,.F.);
#236=ADVANCED_FACE('',(#60,#39),#223,.T.);
#237=ADVANCED_FACE('',(#61,#40),#25,.T.);
#238=ADVANCED_FACE('',(#62,#41),#224,.T.);
#239=ADVANCED_FACE('',(#63,#42),#26,.T.);
#240=ADVANCED_FACE('',(#64,#43),#17,.T.);
#241=ADVANCED_FACE('',(#65,#44),#15,.T.);
#242=ADVANCED_FACE('',(#66,#45),#27,.F.);
#243=ADVANCED_FACE('',(#67,#46),#16,.T.);
#244=ADVANCED_FACE('',(#68,#47),#18,.T.);
#245=ADVANCED_FACE('',(#69,#48),#19,.F.);
#246=CLOSED_SHELL('',(#225,#226,#227,#228,#229,#230,#231,#232,#233,#234,
#235,#236,#237,#238,#239,#240,#241,#242,#243,#244,#245));
#247=AXIS2_PLACEMENT_3D('placement',#376,#290,#291);
#248=AXIS2_PLACEMENT_3D('',#377,#292,#293);
#249=AXIS2_PLACEMENT_3D('',#379,#294,#295);
#250=AXIS2_PLACEMENT_3D('',#381,#296,#297);
#251=AXIS2_PLACEMENT_3D('',#382,#298,#299);
#252=AXIS2_PLACEMENT_3D('',#384,#300,#301);
#253=AXIS2_PLACEMENT_3D('',#385,#302,#303);
#254=AXIS2_PLACEMENT_3D('',#387,#304,#305);
#255=AXIS2_PLACEMENT_3D('',#389,#306,#307);
#256=AXIS2_PLACEMENT_3D('',#390,#308,#309);
#257=AXIS2_PLACEMENT_3D('',#392,#310,#311);
#258=AXIS2_PLACEMENT_3D('',#393,#312,#313);
#259=AXIS2_PLACEMENT_3D('',#395,#314,#315);
#260=AXIS2_PLACEMENT_3D('',#397,#316,#317);
#261=AXIS2_PLACEMENT_3D('',#398,#318,#319);
#262=AXIS2_PLACEMENT_3D('',#400,#320,#321);
#263=AXIS2_PLACEMENT_3D('',#401,#322,#323);
#264=AXIS2_PLACEMENT_3D('',#403,#324,#325);
#265=AXIS2_PLACEMENT_3D('',#404,#326,#327);
#266=AXIS2_PLACEMENT_3D('',#406,#328,#329);
#267=AXIS2_PLACEMENT_3D('',#407,#330,#331);
#268=AXIS2_PLACEMENT_3D('',#409,#332,#333);
#269=AXIS2_PLACEMENT_3D('',#410,#334,#335);
#270=AXIS2_PLACEMENT_3D('',#412,#336,#337);
#271=AXIS2_PLACEMENT_3D('',#413,#338,#339);
#272=AXIS2_PLACEMENT_3D('',#415,#340,#341);
#273=AXIS2_PLACEMENT_3D('',#416,#342,#343);
#274=AXIS2_PLACEMENT_3D('',#418,#344,#345);
#275=AXIS2_PLACEMENT_3D('',#419,#346,#347);
#276=AXIS2_PLACEMENT_3D('',#421,#348,#349);
#277=AXIS2_PLACEMENT_3D('',#422,#350,#351);
#278=AXIS2_PLACEMENT_3D('',#423,#352,#353);
#279=AXIS2_PLACEMENT_3D('',#425,#354,#355);
#280=AXIS2_PLACEMENT_3D('',#427,#356,#357);
#281=AXIS2_PLACEMENT_3D('',#428,#358,#359);
#282=AXIS2_PLACEMENT_3D('',#430,#360,#361);
#283=AXIS2_PLACEMENT_3D('',#431,#362,#363);
#284=AXIS2_PLACEMENT_3D('',#433,#364,#365);
#285=AXIS2_PLACEMENT_3D('',#434,#366,#367);
#286=AXIS2_PLACEMENT_3D('',#436,#368,#369);
#287=AXIS2_PLACEMENT_3D('',#437,#370,#371);
#288=AXIS2_PLACEMENT_3D('',#438,#372,#373);
#289=AXIS2_PLACEMENT_3D('',#439,#374,#375);
#290=DIRECTION('axis',(0.,0.,1.));
#291=DIRECTION('refdir',(1.,0.,0.));
#292=DIRECTION('center_axis',(0.,-1.,0.));
#293=DIRECTION('ref_axis',(1.,0.,3.16985680890781E-15));
#294=DIRECTION('center_axis',(0.,-1.,0.));
#295=DIRECTION('ref_axis',(1.,0.,3.16985680890781E-15));
#296=DIRECTION('center_axis',(0.,1.,0.));
#297=DIRECTION('ref_axis',(1.,0.,3.16985680890781E-15));
#298=DIRECTION('center_axis',(0.,-1.,0.));
#299=DIRECTION('ref_axis',(1.,0.,0.));
#300=DIRECTION('center_axis',(0.,-1.,0.));
#301=DIRECTION('ref_axis',(1.,0.,0.));
#302=DIRECTION('center_axis',(0.,1.,0.));
#303=DIRECTION('ref_axis',(1.,0.,3.16985680890781E-15));
#304=DIRECTION('center_axis',(0.,-1.,0.));
#305=DIRECTION('ref_axis',(1.,0.,3.16985680890781E-15));
#306=DIRECTION('center_axis',(0.,1.,0.));
#307=DIRECTION('ref_axis',(1.,0.,3.16985680890781E-15));
#308=DIRECTION('center_axis',(0.,-1.,0.));
#309=DIRECTION('ref_axis',(1.,0.,0.));
#310=DIRECTION('center_axis',(0.,-1.,0.));
#311=DIRECTION('ref_axis',(1.,0.,0.));
#312=DIRECTION('center_axis',(0.,1.,0.));
#313=DIRECTION('ref_axis',(1.,0.,-5.71192738809345E-15));
#314=DIRECTION('center_axis',(0.,-1.,0.));
#315=DIRECTION('ref_axis',(1.,0.,-5.71192738809345E-15));
#316=DIRECTION('center_axis',(0.,1.,0.));
#317=DIRECTION('ref_axis',(1.,0.,-5.71192738809345E-15));
#318=DIRECTION('center_axis',(0.,-1.,0.));
#319=DIRECTION('ref_axis',(1.,0.,0.));
#320=DIRECTION('center_axis',(0.,1.,0.));
#321=DIRECTION('ref_axis',(1.,0.,-5.71192738809345E-15));
#322=DIRECTION('center_axis',(0.,-1.,0.));
#323=DIRECTION('ref_axis',(1.,0.,-5.71192738809345E-15));
#324=DIRECTION('center_axis',(0.,-1.,0.));
#325=DIRECTION('ref_axis',(1.,0.,-5.71192738809345E-15));
#326=DIRECTION('center_axis',(0.,-1.,0.));
#327=DIRECTION('ref_axis',(0.,0.,-1.));
#328=DIRECTION('center_axis',(0.,-1.,0.));
#329=DIRECTION('ref_axis',(-1.,0.,1.22464679914735E-16));
#330=DIRECTION('center_axis',(0.,-1.,0.));
#331=DIRECTION('ref_axis',(1.,0.,0.));
#332=DIRECTION('center_axis',(0.,-1.,0.));
#333=DIRECTION('ref_axis',(1.,0.,0.));
#334=DIRECTION('center_axis',(0.,-1.,0.));
#335=DIRECTION('ref_axis',(0.,0.,-1.));
#336=DIRECTION('center_axis',(0.,1.,0.));
#337=DIRECTION('ref_axis',(-1.,0.,1.22464679914735E-16));
#338=DIRECTION('center_axis',(0.,-1.,0.));
#339=DIRECTION('ref_axis',(1.,0.,0.));
#340=DIRECTION('center_axis',(0.,-1.,0.));
#341=DIRECTION('ref_axis',(1.,0.,0.));
#342=DIRECTION('center_axis',(0.,-1.,0.));
#343=DIRECTION('ref_axis',(0.,0.,-1.));
#344=DIRECTION('center_axis',(0.,-1.,0.));
#345=DIRECTION('ref_axis',(-1.,0.,1.22464679914735E-16));
#346=DIRECTION('center_axis',(0.,-1.,0.));
#347=DIRECTION('ref_axis',(1.,0.,0.));
#348=DIRECTION('center_axis',(0.,1.,0.));
#349=DIRECTION('ref_axis',(-1.,0.,1.22464679914735E-16));
#350=DIRECTION('center_axis',(0.,-1.,0.));
#351=DIRECTION('ref_axis',(0.,0.,-1.));
#352=DIRECTION('center_axis',(0.,-1.,0.));
#353=DIRECTION('ref_axis',(1.,0.,0.));
#354=DIRECTION('center_axis',(0.,-1.,0.));
#355=DIRECTION('ref_axis',(1.,0.,0.));
#356=DIRECTION('center_axis',(0.,-1.,0.));
#357=DIRECTION('ref_axis',(1.,0.,0.));
#358=DIRECTION('center_axis',(0.,1.,0.));
#359=DIRECTION('ref_axis',(1.,0.,0.));
#360=DIRECTION('center_axis',(0.,-1.,0.));
#361=DIRECTION('ref_axis',(1.,0.,0.));
#362=DIRECTION('center_axis',(0.,-1.,0.));
#363=DIRECTION('ref_axis',(0.,0.,-1.));
#364=DIRECTION('center_axis',(0.,-1.,0.));
#365=DIRECTION('ref_axis',(1.,0.,0.));
#366=DIRECTION('center_axis',(0.,-1.,0.));
#367=DIRECTION('ref_axis',(1.,0.,0.));
#368=DIRECTION('center_axis',(0.,-1.,0.));
#369=DIRECTION('ref_axis',(1.,0.,0.));
#370=DIRECTION('center_axis',(0.,1.,0.));
#371=DIRECTION('ref_axis',(0.,0.,1.));
#372=DIRECTION('center_axis',(0.,1.,0.));
#373=DIRECTION('ref_axis',(1.,0.,0.));
#374=DIRECTION('center_axis',(0.,1.,0.));
#375=DIRECTION('ref_axis',(1.,0.,0.));
#376=CARTESIAN_POINT('',(0.,0.,0.));
#377=CARTESIAN_POINT('Origin',(0.,39.7721152651702,0.));
#378=CARTESIAN_POINT('',(-60.4125,44.0353116892164,-1.98897371943492E-13));
#379=CARTESIAN_POINT('Origin',(0.,44.0353116892164,0.));
#380=CARTESIAN_POINT('',(-58.025,39.7721152651702,-1.76824928284823E-13));
#381=CARTESIAN_POINT('Origin',(0.,39.7721152651702,0.));
#382=CARTESIAN_POINT('Origin',(0.,27.1543218785836,0.));
#383=CARTESIAN_POINT('',(58.025,11.0095498823281,0.));
#384=CARTESIAN_POINT('Origin',(0.,11.0095498823281,0.));
#385=CARTESIAN_POINT('Origin',(0.,62.8455531199648,0.));
#386=CARTESIAN_POINT('',(-58.025,62.8455531199648,-1.91036954388928E-13));
#387=CARTESIAN_POINT('Origin',(0.,62.8455531199648,0.));
#388=CARTESIAN_POINT('',(-60.4125,58.5823566959186,-1.84100576992794E-13));
#389=CARTESIAN_POINT('Origin',(0.,58.5823566959186,0.));
#390=CARTESIAN_POINT('Origin',(0.,65.6621367006734,0.));
#391=CARTESIAN_POINT('',(58.025,71.9951905283832,0.));
#392=CARTESIAN_POINT('Origin',(0.,71.9951905283832,0.));
#393=CARTESIAN_POINT('Origin',(0.,52.6608265424835,0.));
#394=CARTESIAN_POINT('',(-60.4,52.6608265424835,3.37603547573994E-13));
#395=CARTESIAN_POINT('Origin',(0.,52.6608265424835,0.));
#396=CARTESIAN_POINT('',(-57.8625,57.0123887619629,3.37592511035123E-13));
#397=CARTESIAN_POINT('Origin',(0.,57.0123887619629,0.));
#398=CARTESIAN_POINT('Origin',(0.,51.2671930120803,0.));
#399=CARTESIAN_POINT('',(-60.4,49.8946566135578,3.52397280907694E-13));
#400=CARTESIAN_POINT('Origin',(0.,49.8946566135578,0.));
#401=CARTESIAN_POINT('Origin',(0.,49.8946566135578,0.));
#402=CARTESIAN_POINT('',(-57.8625,45.5430943940784,3.23420285951991E-13));
#403=CARTESIAN_POINT('Origin',(0.,45.5430943940784,0.));
#404=CARTESIAN_POINT('Origin',(0.,41.1915321745991,0.));
#405=CARTESIAN_POINT('',(55.325,41.1915321745991,0.));
#406=CARTESIAN_POINT('Origin',(0.,41.1915321745991,0.));
#407=CARTESIAN_POINT('Origin',(0.,29.8841892865347,0.));
#408=CARTESIAN_POINT('',(55.325,13.9951905283832,0.));
#409=CARTESIAN_POINT('Origin',(0.,13.9951905283832,0.));
#410=CARTESIAN_POINT('Origin',(0.,61.3639509814422,0.));
#411=CARTESIAN_POINT('',(55.325,61.3639509814422,-1.35507168325655E-14));
#412=CARTESIAN_POINT('Origin',(0.,61.3639509814422,0.));
#413=CARTESIAN_POINT('Origin',(0.,64.4677575935228,0.));
#414=CARTESIAN_POINT('',(55.325,71.9951905283832,0.));
#415=CARTESIAN_POINT('Origin',(0.,71.9951905283832,0.));
#416=CARTESIAN_POINT('Origin',(0.,48.2985081132625,0.));
#417=CARTESIAN_POINT('',(62.8,48.2985081132625,0.));
#418=CARTESIAN_POINT('Origin',(0.,48.2985081132625,0.));
#419=CARTESIAN_POINT('Origin',(0.,51.2298194189138,0.));
#420=CARTESIAN_POINT('',(62.8,54.3191602718724,-1.53815637972908E-14));
#421=CARTESIAN_POINT('Origin',(0.,54.3191602718724,0.));
#422=CARTESIAN_POINT('Origin',(0.,54.3191602718724,0.));
#423=CARTESIAN_POINT('Origin',(0.,-493.002404735808,0.));
#424=CARTESIAN_POINT('',(55.075,0.,0.));
#425=CARTESIAN_POINT('Origin',(0.,0.,0.));
#426=CARTESIAN_POINT('',(55.0750000000002,-986.004809471617,0.));
#427=CARTESIAN_POINT('Origin',(0.,-986.004809471617,0.));
#428=CARTESIAN_POINT('Origin',(0.,-989.004809471617,0.));
#429=CARTESIAN_POINT('',(53.4673048454135,-992.004809471617,0.));
#430=CARTESIAN_POINT('Origin',(0.,-992.004809471617,0.));
#431=CARTESIAN_POINT('Origin',(51.5750000000001,-992.004809471617,0.));
#432=CARTESIAN_POINT('',(51.5750000000001,-992.004809471617,0.));
#433=CARTESIAN_POINT('Origin',(0.,-992.004809471617,0.));
#434=CARTESIAN_POINT('Origin',(0.,-496.002404735808,0.));
#435=CARTESIAN_POINT('',(51.575,0.,0.));
#436=CARTESIAN_POINT('Origin',(0.,0.,0.));
#437=CARTESIAN_POINT('Origin',(58.025,71.9951905283832,0.));
#438=CARTESIAN_POINT('Origin',(0.,5.50477494116405,0.));
#439=CARTESIAN_POINT('Origin',(0.,6.99759526419161,0.));
#440=UNCERTAINTY_MEASURE_WITH_UNIT(LENGTH_MEASURE(0.01),#444,
'DISTANCE_ACCURACY_VALUE',
'Maximum model space distance between geometric entities at asserted c
onnectivities');
#441=UNCERTAINTY_MEASURE_WITH_UNIT(LENGTH_MEASURE(1.E-6),#444,
'DISTANCE_ACCURACY_VALUE',
'Maximum model space distance between geometric entities at asserted c
onnectivities');
#442=(
GEOMETRIC_REPRESENTATION_CONTEXT(3)
GLOBAL_UNCERTAINTY_ASSIGNED_CONTEXT((#440))
GLOBAL_UNIT_ASSIGNED_CONTEXT((#444,#447,#445))
REPRESENTATION_CONTEXT('','3D')
);
#443=(
GEOMETRIC_REPRESENTATION_CONTEXT(3)
GLOBAL_UNCERTAINTY_ASSIGNED_CONTEXT((#441))
GLOBAL_UNIT_ASSIGNED_CONTEXT((#444,#447,#445))
REPRESENTATION_CONTEXT('','3D')
);
#444=(
LENGTH_UNIT()
NAMED_UNIT(*)
SI_UNIT(.MILLI.,.METRE.)
);
#445=(
NAMED_UNIT(*)
SI_UNIT($,.STERADIAN.)
SOLID_ANGLE_UNIT()
);
#446=DIMENSIONAL_EXPONENTS(0.,0.,0.,0.,0.,0.,0.);
#447=(
CONVERSION_BASED_UNIT('degree',#449)
NAMED_UNIT(#446)
PLANE_ANGLE_UNIT()
);
#448=(
NAMED_UNIT(*)
PLANE_ANGLE_UNIT()
SI_UNIT($,.RADIAN.)
);
#449=PLANE_ANGLE_MEASURE_WITH_UNIT(PLANE_ANGLE_MEASURE(0.01745329252),#448);
#450=SHAPE_DEFINITION_REPRESENTATION(#451,#452);
#451=PRODUCT_DEFINITION_SHAPE('',$,#454);
#452=SHAPE_REPRESENTATION('',(#247),#442);
#453=PRODUCT_DEFINITION_CONTEXT('part definition',#458,'design');
#454=PRODUCT_DEFINITION('220010 KGEM Passl\X\E4ngen SN 4 DN_OD 110x100
0','220010 KGEM Passl\X\E4ngen SN 4 DN_OD 110x1000',#455,#453);
#455=PRODUCT_DEFINITION_FORMATION('',$,#460);
#456=PRODUCT_RELATED_PRODUCT_CATEGORY(
'220010 KGEM Passl\X\E4ngen SN 4 DN_OD 110x1000',
'220010 KGEM Passl\X\E4ngen SN 4 DN_OD 110x1000',(#460));
#457=APPLICATION_PROTOCOL_DEFINITION('international standard',
'automotive_design',2009,#458);
#458=APPLICATION_CONTEXT(
'Core Data for Automotive Mechanical Design Process');
#459=PRODUCT_CONTEXT('part definition',#458,'mechanical');
#460=PRODUCT('220010 KGEM Passl\X\E4ngen SN 4 DN_OD 110x1000',
'220010 KGEM Passl\X\E4ngen SN 4 DN_OD 110x1000',$,(#459));
#461=PRESENTATION_STYLE_ASSIGNMENT((#462));
#462=SURFACE_STYLE_USAGE(.BOTH.,#463);
#463=SURFACE_SIDE_STYLE('',(#464));
#464=SURFACE_STYLE_FILL_AREA(#465);
#465=FILL_AREA_STYLE('',(#466));
#466=FILL_AREA_STYLE_COLOUR('',#467);
#467=COLOUR_RGB('',0.749019607843137,0.749019607843137,0.749019607843137);
ENDSEC;
END-ISO-10303-21;
