ISO-10303-21;
HEADER;
/* Generated by software containing ST-Developer
 * from STEP Tools, Inc. (www.steptools.com) 
 */

FILE_DESCRIPTION(
/* description */ (''),
/* implementation_level */ '2;1');

FILE_NAME(
/* name */ 
'Y:\\ACad-Dateien\\Ostendorf\\HT safe\\Kundenzeichnung\\174620 HTsafeM
 DN_OD 90.stp',
/* time_stamp */ '2017-03-13T10:00:22+01:00',
/* author */ ('user1'),
/* organization */ (''),
/* preprocessor_version */ 'ST-DEVELOPER v16.1',
/* originating_system */ 'Autodesk Inventor 2016',
/* authorisation */ '');

FILE_SCHEMA (('AUTOMOTIVE_DESIGN { 1 0 10303 214 3 1 1 }'));
ENDSEC;

DATA;
#10=MECHANICAL_DESIGN_GEOMETRIC_PRESENTATION_REPRESENTATION('',(#13),#209);
#11=SHAPE_REPRESENTATION_RELATIONSHIP('SRR','None',#218,#12);
#12=ADVANCED_BREP_SHAPE_REPRESENTATION('',(#14),#208);
#13=STYLED_ITEM('',(#227),#14);
#14=MANIFOLD_SOLID_BREP('Volumenk\X\F6rper1',#116);
#15=CONICAL_SURFACE('',#127,44.4641016151378,15.);
#16=TOROIDAL_SURFACE('',#123,46.,0.999999999999996);
#17=TOROIDAL_SURFACE('',#133,41.5,0.999999999999996);
#18=PLANE('',#121);
#19=PLANE('',#129);
#20=PLANE('',#135);
#21=PLANE('',#136);
#22=FACE_BOUND('',#41,.T.);
#23=FACE_BOUND('',#43,.T.);
#24=FACE_BOUND('',#45,.T.);
#25=FACE_BOUND('',#47,.T.);
#26=FACE_BOUND('',#49,.T.);
#27=FACE_BOUND('',#51,.T.);
#28=FACE_BOUND('',#53,.T.);
#29=FACE_BOUND('',#55,.T.);
#30=FACE_OUTER_BOUND('',#40,.T.);
#31=FACE_OUTER_BOUND('',#42,.T.);
#32=FACE_OUTER_BOUND('',#44,.T.);
#33=FACE_OUTER_BOUND('',#46,.T.);
#34=FACE_OUTER_BOUND('',#48,.T.);
#35=FACE_OUTER_BOUND('',#50,.T.);
#36=FACE_OUTER_BOUND('',#52,.T.);
#37=FACE_OUTER_BOUND('',#54,.T.);
#38=FACE_OUTER_BOUND('',#56,.T.);
#39=FACE_OUTER_BOUND('',#57,.T.);
#40=EDGE_LOOP('',(#85));
#41=EDGE_LOOP('',(#86));
#42=EDGE_LOOP('',(#87));
#43=EDGE_LOOP('',(#88));
#44=EDGE_LOOP('',(#89));
#45=EDGE_LOOP('',(#90));
#46=EDGE_LOOP('',(#91));
#47=EDGE_LOOP('',(#92));
#48=EDGE_LOOP('',(#93));
#49=EDGE_LOOP('',(#94));
#50=EDGE_LOOP('',(#95));
#51=EDGE_LOOP('',(#96));
#52=EDGE_LOOP('',(#97));
#53=EDGE_LOOP('',(#98));
#54=EDGE_LOOP('',(#99));
#55=EDGE_LOOP('',(#100));
#56=EDGE_LOOP('',(#101));
#57=EDGE_LOOP('',(#102));
#58=CIRCLE('',#119,47.95);
#59=CIRCLE('',#120,47.95);
#60=CIRCLE('',#122,46.);
#61=CIRCLE('',#124,45.);
#62=CIRCLE('',#126,45.);
#63=CIRCLE('',#128,43.9282032302755);
#64=CIRCLE('',#130,42.5);
#65=CIRCLE('',#132,42.5);
#66=CIRCLE('',#134,41.5);
#67=VERTEX_POINT('',#179);
#68=VERTEX_POINT('',#181);
#69=VERTEX_POINT('',#184);
#70=VERTEX_POINT('',#187);
#71=VERTEX_POINT('',#190);
#72=VERTEX_POINT('',#193);
#73=VERTEX_POINT('',#196);
#74=VERTEX_POINT('',#199);
#75=VERTEX_POINT('',#202);
#76=EDGE_CURVE('',#67,#67,#58,.T.);
#77=EDGE_CURVE('',#68,#68,#59,.T.);
#78=EDGE_CURVE('',#69,#69,#60,.T.);
#79=EDGE_CURVE('',#70,#70,#61,.T.);
#80=EDGE_CURVE('',#71,#71,#62,.T.);
#81=EDGE_CURVE('',#72,#72,#63,.T.);
#82=EDGE_CURVE('',#73,#73,#64,.T.);
#83=EDGE_CURVE('',#74,#74,#65,.T.);
#84=EDGE_CURVE('',#75,#75,#66,.T.);
#85=ORIENTED_EDGE('',*,*,#76,.F.);
#86=ORIENTED_EDGE('',*,*,#77,.T.);
#87=ORIENTED_EDGE('',*,*,#76,.T.);
#88=ORIENTED_EDGE('',*,*,#78,.F.);
#89=ORIENTED_EDGE('',*,*,#79,.F.);
#90=ORIENTED_EDGE('',*,*,#78,.T.);
#91=ORIENTED_EDGE('',*,*,#80,.F.);
#92=ORIENTED_EDGE('',*,*,#79,.T.);
#93=ORIENTED_EDGE('',*,*,#81,.F.);
#94=ORIENTED_EDGE('',*,*,#80,.T.);
#95=ORIENTED_EDGE('',*,*,#81,.T.);
#96=ORIENTED_EDGE('',*,*,#82,.F.);
#97=ORIENTED_EDGE('',*,*,#83,.F.);
#98=ORIENTED_EDGE('',*,*,#82,.T.);
#99=ORIENTED_EDGE('',*,*,#84,.F.);
#100=ORIENTED_EDGE('',*,*,#83,.T.);
#101=ORIENTED_EDGE('',*,*,#84,.T.);
#102=ORIENTED_EDGE('',*,*,#77,.F.);
#103=CYLINDRICAL_SURFACE('',#118,47.95);
#104=CYLINDRICAL_SURFACE('',#125,45.);
#105=CYLINDRICAL_SURFACE('',#131,42.5);
#106=ADVANCED_FACE('',(#30,#22),#103,.T.);
#107=ADVANCED_FACE('',(#31,#23),#18,.T.);
#108=ADVANCED_FACE('',(#32,#24),#16,.F.);
#109=ADVANCED_FACE('',(#33,#25),#104,.T.);
#110=ADVANCED_FACE('',(#34,#26),#15,.T.);
#111=ADVANCED_FACE('',(#35,#27),#19,.T.);
#112=ADVANCED_FACE('',(#36,#28),#105,.F.);
#113=ADVANCED_FACE('',(#37,#29),#17,.F.);
#114=ADVANCED_FACE('',(#38),#20,.T.);
#115=ADVANCED_FACE('',(#39),#21,.T.);
#116=CLOSED_SHELL('',(#106,#107,#108,#109,#110,#111,#112,#113,#114,#115));
#117=AXIS2_PLACEMENT_3D('placement',#177,#137,#138);
#118=AXIS2_PLACEMENT_3D('',#178,#139,#140);
#119=AXIS2_PLACEMENT_3D('',#180,#141,#142);
#120=AXIS2_PLACEMENT_3D('',#182,#143,#144);
#121=AXIS2_PLACEMENT_3D('',#183,#145,#146);
#122=AXIS2_PLACEMENT_3D('',#185,#147,#148);
#123=AXIS2_PLACEMENT_3D('',#186,#149,#150);
#124=AXIS2_PLACEMENT_3D('',#188,#151,#152);
#125=AXIS2_PLACEMENT_3D('',#189,#153,#154);
#126=AXIS2_PLACEMENT_3D('',#191,#155,#156);
#127=AXIS2_PLACEMENT_3D('',#192,#157,#158);
#128=AXIS2_PLACEMENT_3D('',#194,#159,#160);
#129=AXIS2_PLACEMENT_3D('',#195,#161,#162);
#130=AXIS2_PLACEMENT_3D('',#197,#163,#164);
#131=AXIS2_PLACEMENT_3D('',#198,#165,#166);
#132=AXIS2_PLACEMENT_3D('',#200,#167,#168);
#133=AXIS2_PLACEMENT_3D('',#201,#169,#170);
#134=AXIS2_PLACEMENT_3D('',#203,#171,#172);
#135=AXIS2_PLACEMENT_3D('',#204,#173,#174);
#136=AXIS2_PLACEMENT_3D('',#205,#175,#176);
#137=DIRECTION('axis',(0.,0.,1.));
#138=DIRECTION('refdir',(1.,0.,0.));
#139=DIRECTION('center_axis',(0.,-1.,0.));
#140=DIRECTION('ref_axis',(1.,0.,0.));
#141=DIRECTION('center_axis',(0.,-1.,0.));
#142=DIRECTION('ref_axis',(1.,0.,0.));
#143=DIRECTION('center_axis',(0.,-1.,0.));
#144=DIRECTION('ref_axis',(1.,0.,0.));
#145=DIRECTION('center_axis',(0.,-1.,0.));
#146=DIRECTION('ref_axis',(0.,0.,-1.));
#147=DIRECTION('center_axis',(0.,-1.,0.));
#148=DIRECTION('ref_axis',(1.,0.,0.));
#149=DIRECTION('center_axis',(0.,-1.,0.));
#150=DIRECTION('ref_axis',(0.,0.,-1.));
#151=DIRECTION('center_axis',(0.,-1.,0.));
#152=DIRECTION('ref_axis',(1.,0.,0.));
#153=DIRECTION('center_axis',(0.,-1.,0.));
#154=DIRECTION('ref_axis',(1.,0.,0.));
#155=DIRECTION('center_axis',(0.,-1.,0.));
#156=DIRECTION('ref_axis',(1.,0.,0.));
#157=DIRECTION('center_axis',(0.,1.,0.));
#158=DIRECTION('ref_axis',(1.,0.,0.));
#159=DIRECTION('center_axis',(0.,-1.,0.));
#160=DIRECTION('ref_axis',(1.,0.,0.));
#161=DIRECTION('center_axis',(0.,-1.,0.));
#162=DIRECTION('ref_axis',(0.,0.,-1.));
#163=DIRECTION('center_axis',(0.,-1.,0.));
#164=DIRECTION('ref_axis',(1.,0.,0.));
#165=DIRECTION('center_axis',(0.,-1.,0.));
#166=DIRECTION('ref_axis',(1.,0.,0.));
#167=DIRECTION('center_axis',(0.,-1.,0.));
#168=DIRECTION('ref_axis',(1.,0.,0.));
#169=DIRECTION('center_axis',(0.,-1.,0.));
#170=DIRECTION('ref_axis',(0.,0.,-1.));
#171=DIRECTION('center_axis',(0.,-1.,0.));
#172=DIRECTION('ref_axis',(1.,0.,0.));
#173=DIRECTION('center_axis',(0.,-1.,0.));
#174=DIRECTION('ref_axis',(0.,0.,-1.));
#175=DIRECTION('center_axis',(0.,1.,0.));
#176=DIRECTION('ref_axis',(0.,0.,1.));
#177=CARTESIAN_POINT('',(0.,0.,0.));
#178=CARTESIAN_POINT('Origin',(0.,38.,0.));
#179=CARTESIAN_POINT('',(47.95,36.6,0.));
#180=CARTESIAN_POINT('Origin',(0.,36.6,0.));
#181=CARTESIAN_POINT('',(47.95,39.4,0.));
#182=CARTESIAN_POINT('Origin',(0.,39.4,0.));
#183=CARTESIAN_POINT('Origin',(46.,36.6,0.));
#184=CARTESIAN_POINT('',(46.,36.6,0.));
#185=CARTESIAN_POINT('Origin',(0.,36.6,0.));
#186=CARTESIAN_POINT('Origin',(0.,35.6,0.));
#187=CARTESIAN_POINT('',(45.,35.6,0.));
#188=CARTESIAN_POINT('Origin',(0.,35.6,0.));
#189=CARTESIAN_POINT('Origin',(0.,19.8,0.));
#190=CARTESIAN_POINT('',(45.,4.,0.));
#191=CARTESIAN_POINT('Origin',(0.,4.,0.));
#192=CARTESIAN_POINT('Origin',(0.,2.,0.));
#193=CARTESIAN_POINT('',(43.9282032302755,2.77555756156289E-16,0.));
#194=CARTESIAN_POINT('Origin',(0.,0.,0.));
#195=CARTESIAN_POINT('Origin',(42.5,0.,0.));
#196=CARTESIAN_POINT('',(42.5,0.,0.));
#197=CARTESIAN_POINT('Origin',(0.,0.,0.));
#198=CARTESIAN_POINT('Origin',(0.,17.8,0.));
#199=CARTESIAN_POINT('',(42.5,35.6,0.));
#200=CARTESIAN_POINT('Origin',(0.,35.6,0.));
#201=CARTESIAN_POINT('Origin',(0.,35.6,0.));
#202=CARTESIAN_POINT('',(41.5,36.6,0.));
#203=CARTESIAN_POINT('Origin',(0.,36.6,0.));
#204=CARTESIAN_POINT('Origin',(0.,36.6,0.));
#205=CARTESIAN_POINT('Origin',(47.95,39.4,0.));
#206=UNCERTAINTY_MEASURE_WITH_UNIT(LENGTH_MEASURE(0.01),#210,
'DISTANCE_ACCURACY_VALUE',
'Maximum model space distance between geometric entities at asserted c
onnectivities');
#207=UNCERTAINTY_MEASURE_WITH_UNIT(LENGTH_MEASURE(1.E-6),#210,
'DISTANCE_ACCURACY_VALUE',
'Maximum model space distance between geometric entities at asserted c
onnectivities');
#208=(
GEOMETRIC_REPRESENTATION_CONTEXT(3)
GLOBAL_UNCERTAINTY_ASSIGNED_CONTEXT((#206))
GLOBAL_UNIT_ASSIGNED_CONTEXT((#210,#213,#211))
REPRESENTATION_CONTEXT('','3D')
);
#209=(
GEOMETRIC_REPRESENTATION_CONTEXT(3)
GLOBAL_UNCERTAINTY_ASSIGNED_CONTEXT((#207))
GLOBAL_UNIT_ASSIGNED_CONTEXT((#210,#213,#211))
REPRESENTATION_CONTEXT('','3D')
);
#210=(
LENGTH_UNIT()
NAMED_UNIT(*)
SI_UNIT(.MILLI.,.METRE.)
);
#211=(
NAMED_UNIT(*)
SI_UNIT($,.STERADIAN.)
SOLID_ANGLE_UNIT()
);
#212=DIMENSIONAL_EXPONENTS(0.,0.,0.,0.,0.,0.,0.);
#213=(
CONVERSION_BASED_UNIT('degree',#215)
NAMED_UNIT(#212)
PLANE_ANGLE_UNIT()
);
#214=(
NAMED_UNIT(*)
PLANE_ANGLE_UNIT()
SI_UNIT($,.RADIAN.)
);
#215=PLANE_ANGLE_MEASURE_WITH_UNIT(PLANE_ANGLE_MEASURE(0.01745329252),#214);
#216=SHAPE_DEFINITION_REPRESENTATION(#217,#218);
#217=PRODUCT_DEFINITION_SHAPE('',$,#220);
#218=SHAPE_REPRESENTATION('',(#117),#208);
#219=PRODUCT_DEFINITION_CONTEXT('part definition',#224,'design');
#220=PRODUCT_DEFINITION('174620 HTsafeM DN_OD 90',
'174620 HTsafeM DN_OD 90',#221,#219);
#221=PRODUCT_DEFINITION_FORMATION('',$,#226);
#222=PRODUCT_RELATED_PRODUCT_CATEGORY('174620 HTsafeM DN_OD 90',
'174620 HTsafeM DN_OD 90',(#226));
#223=APPLICATION_PROTOCOL_DEFINITION('international standard',
'automotive_design',2009,#224);
#224=APPLICATION_CONTEXT(
'Core Data for Automotive Mechanical Design Process');
#225=PRODUCT_CONTEXT('part definition',#224,'mechanical');
#226=PRODUCT('174620 HTsafeM DN_OD 90','174620 HTsafeM DN_OD 90',$,(#225));
#227=PRESENTATION_STYLE_ASSIGNMENT((#228));
#228=SURFACE_STYLE_USAGE(.BOTH.,#229);
#229=SURFACE_SIDE_STYLE('',(#230));
#230=SURFACE_STYLE_FILL_AREA(#231);
#231=FILL_AREA_STYLE('',(#232));
#232=FILL_AREA_STYLE_COLOUR('',#233);
#233=COLOUR_RGB('',0.749019607843137,0.749019607843137,0.749019607843137);
ENDSEC;
END-ISO-10303-21;
