ISO-10303-21;
HEADER;
/* Generated by software containing ST-Developer
 * from STEP Tools, Inc. (www.steptools.com) 
 */

FILE_DESCRIPTION(
/* description */ (''),
/* implementation_level */ '2;1');

FILE_NAME(
/* name */ 
'Y:\\ACad-Dateien\\Ostendorf\\HT safe\\Kundenzeichnung\\173010 HTsafeE
M DN_OD 75x250.stp',
/* time_stamp */ '2017-03-13T09:20:15+01:00',
/* author */ ('user1'),
/* organization */ (''),
/* preprocessor_version */ 'ST-DEVELOPER v16.1',
/* originating_system */ 'Autodesk Inventor 2016',
/* authorisation */ '');

FILE_SCHEMA (('AUTOMOTIVE_DESIGN { 1 0 10303 214 3 1 1 }'));
ENDSEC;

DATA;
#10=MECHANICAL_DESIGN_GEOMETRIC_PRESENTATION_REPRESENTATION('',(#13),#603);
#11=SHAPE_REPRESENTATION_RELATIONSHIP('SRR','None',#612,#12);
#12=ADVANCED_BREP_SHAPE_REPRESENTATION('',(#14),#602);
#13=STYLED_ITEM('',(#621),#14);
#14=MANIFOLD_SOLID_BREP('Volumenk\X\F6rper2',#334);
#15=TOROIDAL_SURFACE('',#353,39.15,1.);
#16=TOROIDAL_SURFACE('',#357,41.6,1.);
#17=TOROIDAL_SURFACE('',#361,41.6,1.);
#18=TOROIDAL_SURFACE('',#365,39.15,1.);
#19=TOROIDAL_SURFACE('',#369,38.95,0.8);
#20=TOROIDAL_SURFACE('',#373,39.65,0.5);
#21=TOROIDAL_SURFACE('',#377,41.15,0.999999999999994);
#22=TOROIDAL_SURFACE('',#381,42.6,2.);
#23=TOROIDAL_SURFACE('',#385,42.6,2.);
#24=TOROIDAL_SURFACE('',#389,41.,0.999999999999996);
#25=CYLINDRICAL_SURFACE('',#341,35.45);
#26=CYLINDRICAL_SURFACE('',#343,37.65);
#27=CYLINDRICAL_SURFACE('',#347,38.);
#28=CYLINDRICAL_SURFACE('',#351,38.15);
#29=CYLINDRICAL_SURFACE('',#359,42.6);
#30=CYLINDRICAL_SURFACE('',#367,38.15);
#31=CYLINDRICAL_SURFACE('',#375,40.15);
#32=CYLINDRICAL_SURFACE('',#383,44.6);
#33=CYLINDRICAL_SURFACE('',#391,40.);
#34=PLANE('',#339);
#35=PLANE('',#349);
#36=PLANE('',#371);
#37=FACE_BOUND('',#96,.T.);
#38=FACE_BOUND('',#98,.T.);
#39=FACE_BOUND('',#100,.T.);
#40=FACE_BOUND('',#102,.T.);
#41=FACE_BOUND('',#104,.T.);
#42=FACE_BOUND('',#106,.T.);
#43=FACE_BOUND('',#108,.T.);
#44=FACE_BOUND('',#110,.T.);
#45=FACE_BOUND('',#112,.T.);
#46=FACE_BOUND('',#114,.T.);
#47=FACE_BOUND('',#116,.T.);
#48=FACE_BOUND('',#118,.T.);
#49=FACE_BOUND('',#120,.T.);
#50=FACE_BOUND('',#122,.T.);
#51=FACE_BOUND('',#124,.T.);
#52=FACE_BOUND('',#126,.T.);
#53=FACE_BOUND('',#128,.T.);
#54=FACE_BOUND('',#130,.T.);
#55=FACE_BOUND('',#132,.T.);
#56=FACE_BOUND('',#134,.T.);
#57=FACE_BOUND('',#136,.T.);
#58=FACE_BOUND('',#138,.T.);
#59=FACE_BOUND('',#140,.T.);
#60=FACE_BOUND('',#142,.T.);
#61=FACE_BOUND('',#144,.T.);
#62=FACE_BOUND('',#146,.T.);
#63=FACE_BOUND('',#148,.T.);
#64=FACE_BOUND('',#150,.T.);
#65=FACE_BOUND('',#152,.T.);
#66=FACE_OUTER_BOUND('',#95,.T.);
#67=FACE_OUTER_BOUND('',#97,.T.);
#68=FACE_OUTER_BOUND('',#99,.T.);
#69=FACE_OUTER_BOUND('',#101,.T.);
#70=FACE_OUTER_BOUND('',#103,.T.);
#71=FACE_OUTER_BOUND('',#105,.T.);
#72=FACE_OUTER_BOUND('',#107,.T.);
#73=FACE_OUTER_BOUND('',#109,.T.);
#74=FACE_OUTER_BOUND('',#111,.T.);
#75=FACE_OUTER_BOUND('',#113,.T.);
#76=FACE_OUTER_BOUND('',#115,.T.);
#77=FACE_OUTER_BOUND('',#117,.T.);
#78=FACE_OUTER_BOUND('',#119,.T.);
#79=FACE_OUTER_BOUND('',#121,.T.);
#80=FACE_OUTER_BOUND('',#123,.T.);
#81=FACE_OUTER_BOUND('',#125,.T.);
#82=FACE_OUTER_BOUND('',#127,.T.);
#83=FACE_OUTER_BOUND('',#129,.T.);
#84=FACE_OUTER_BOUND('',#131,.T.);
#85=FACE_OUTER_BOUND('',#133,.T.);
#86=FACE_OUTER_BOUND('',#135,.T.);
#87=FACE_OUTER_BOUND('',#137,.T.);
#88=FACE_OUTER_BOUND('',#139,.T.);
#89=FACE_OUTER_BOUND('',#141,.T.);
#90=FACE_OUTER_BOUND('',#143,.T.);
#91=FACE_OUTER_BOUND('',#145,.T.);
#92=FACE_OUTER_BOUND('',#147,.T.);
#93=FACE_OUTER_BOUND('',#149,.T.);
#94=FACE_OUTER_BOUND('',#151,.T.);
#95=EDGE_LOOP('',(#240));
#96=EDGE_LOOP('',(#241));
#97=EDGE_LOOP('',(#242));
#98=EDGE_LOOP('',(#243));
#99=EDGE_LOOP('',(#244));
#100=EDGE_LOOP('',(#245));
#101=EDGE_LOOP('',(#246));
#102=EDGE_LOOP('',(#247));
#103=EDGE_LOOP('',(#248));
#104=EDGE_LOOP('',(#249));
#105=EDGE_LOOP('',(#250));
#106=EDGE_LOOP('',(#251));
#107=EDGE_LOOP('',(#252));
#108=EDGE_LOOP('',(#253));
#109=EDGE_LOOP('',(#254));
#110=EDGE_LOOP('',(#255));
#111=EDGE_LOOP('',(#256));
#112=EDGE_LOOP('',(#257));
#113=EDGE_LOOP('',(#258));
#114=EDGE_LOOP('',(#259));
#115=EDGE_LOOP('',(#260));
#116=EDGE_LOOP('',(#261));
#117=EDGE_LOOP('',(#262));
#118=EDGE_LOOP('',(#263));
#119=EDGE_LOOP('',(#264));
#120=EDGE_LOOP('',(#265));
#121=EDGE_LOOP('',(#266));
#122=EDGE_LOOP('',(#267));
#123=EDGE_LOOP('',(#268));
#124=EDGE_LOOP('',(#269));
#125=EDGE_LOOP('',(#270));
#126=EDGE_LOOP('',(#271));
#127=EDGE_LOOP('',(#272));
#128=EDGE_LOOP('',(#273));
#129=EDGE_LOOP('',(#274));
#130=EDGE_LOOP('',(#275));
#131=EDGE_LOOP('',(#276));
#132=EDGE_LOOP('',(#277));
#133=EDGE_LOOP('',(#278));
#134=EDGE_LOOP('',(#279));
#135=EDGE_LOOP('',(#280));
#136=EDGE_LOOP('',(#281));
#137=EDGE_LOOP('',(#282));
#138=EDGE_LOOP('',(#283));
#139=EDGE_LOOP('',(#284));
#140=EDGE_LOOP('',(#285));
#141=EDGE_LOOP('',(#286));
#142=EDGE_LOOP('',(#287));
#143=EDGE_LOOP('',(#288));
#144=EDGE_LOOP('',(#289));
#145=EDGE_LOOP('',(#290));
#146=EDGE_LOOP('',(#291));
#147=EDGE_LOOP('',(#292));
#148=EDGE_LOOP('',(#293));
#149=EDGE_LOOP('',(#294));
#150=EDGE_LOOP('',(#295));
#151=EDGE_LOOP('',(#296));
#152=EDGE_LOOP('',(#297));
#153=CIRCLE('',#337,37.65);
#154=CIRCLE('',#338,36.7121778264911);
#155=CIRCLE('',#340,35.45);
#156=CIRCLE('',#342,35.45);
#157=CIRCLE('',#344,37.65);
#158=CIRCLE('',#346,38.);
#159=CIRCLE('',#348,38.);
#160=CIRCLE('',#350,38.15);
#161=CIRCLE('',#352,38.15);
#162=CIRCLE('',#354,39.0628442572523);
#163=CIRCLE('',#356,41.6871557427477);
#164=CIRCLE('',#358,42.6);
#165=CIRCLE('',#360,42.6);
#166=CIRCLE('',#362,41.7218693434052);
#167=CIRCLE('',#364,39.0281306565949);
#168=CIRCLE('',#366,38.15);
#169=CIRCLE('',#368,38.15);
#170=CIRCLE('',#370,38.95);
#171=CIRCLE('',#372,39.65);
#172=CIRCLE('',#374,40.15);
#173=CIRCLE('',#376,40.15);
#174=CIRCLE('',#378,41.0281306565949);
#175=CIRCLE('',#380,42.8437386868103);
#176=CIRCLE('',#382,44.6);
#177=CIRCLE('',#384,44.6);
#178=CIRCLE('',#386,42.7743114854953);
#179=CIRCLE('',#388,40.9128442572523);
#180=CIRCLE('',#390,40.);
#181=CIRCLE('',#392,40.);
#182=VERTEX_POINT('',#514);
#183=VERTEX_POINT('',#516);
#184=VERTEX_POINT('',#519);
#185=VERTEX_POINT('',#522);
#186=VERTEX_POINT('',#525);
#187=VERTEX_POINT('',#528);
#188=VERTEX_POINT('',#531);
#189=VERTEX_POINT('',#534);
#190=VERTEX_POINT('',#537);
#191=VERTEX_POINT('',#540);
#192=VERTEX_POINT('',#543);
#193=VERTEX_POINT('',#546);
#194=VERTEX_POINT('',#549);
#195=VERTEX_POINT('',#552);
#196=VERTEX_POINT('',#555);
#197=VERTEX_POINT('',#558);
#198=VERTEX_POINT('',#561);
#199=VERTEX_POINT('',#564);
#200=VERTEX_POINT('',#567);
#201=VERTEX_POINT('',#570);
#202=VERTEX_POINT('',#573);
#203=VERTEX_POINT('',#576);
#204=VERTEX_POINT('',#579);
#205=VERTEX_POINT('',#582);
#206=VERTEX_POINT('',#585);
#207=VERTEX_POINT('',#588);
#208=VERTEX_POINT('',#591);
#209=VERTEX_POINT('',#594);
#210=VERTEX_POINT('',#597);
#211=EDGE_CURVE('',#182,#182,#153,.T.);
#212=EDGE_CURVE('',#183,#183,#154,.T.);
#213=EDGE_CURVE('',#184,#184,#155,.T.);
#214=EDGE_CURVE('',#185,#185,#156,.T.);
#215=EDGE_CURVE('',#186,#186,#157,.T.);
#216=EDGE_CURVE('',#187,#187,#158,.T.);
#217=EDGE_CURVE('',#188,#188,#159,.T.);
#218=EDGE_CURVE('',#189,#189,#160,.T.);
#219=EDGE_CURVE('',#190,#190,#161,.T.);
#220=EDGE_CURVE('',#191,#191,#162,.T.);
#221=EDGE_CURVE('',#192,#192,#163,.T.);
#222=EDGE_CURVE('',#193,#193,#164,.T.);
#223=EDGE_CURVE('',#194,#194,#165,.T.);
#224=EDGE_CURVE('',#195,#195,#166,.T.);
#225=EDGE_CURVE('',#196,#196,#167,.T.);
#226=EDGE_CURVE('',#197,#197,#168,.T.);
#227=EDGE_CURVE('',#198,#198,#169,.T.);
#228=EDGE_CURVE('',#199,#199,#170,.T.);
#229=EDGE_CURVE('',#200,#200,#171,.T.);
#230=EDGE_CURVE('',#201,#201,#172,.T.);
#231=EDGE_CURVE('',#202,#202,#173,.T.);
#232=EDGE_CURVE('',#203,#203,#174,.T.);
#233=EDGE_CURVE('',#204,#204,#175,.T.);
#234=EDGE_CURVE('',#205,#205,#176,.T.);
#235=EDGE_CURVE('',#206,#206,#177,.T.);
#236=EDGE_CURVE('',#207,#207,#178,.T.);
#237=EDGE_CURVE('',#208,#208,#179,.T.);
#238=EDGE_CURVE('',#209,#209,#180,.T.);
#239=EDGE_CURVE('',#210,#210,#181,.T.);
#240=ORIENTED_EDGE('',*,*,#211,.T.);
#241=ORIENTED_EDGE('',*,*,#212,.F.);
#242=ORIENTED_EDGE('',*,*,#212,.T.);
#243=ORIENTED_EDGE('',*,*,#213,.F.);
#244=ORIENTED_EDGE('',*,*,#213,.T.);
#245=ORIENTED_EDGE('',*,*,#214,.F.);
#246=ORIENTED_EDGE('',*,*,#211,.F.);
#247=ORIENTED_EDGE('',*,*,#215,.T.);
#248=ORIENTED_EDGE('',*,*,#214,.T.);
#249=ORIENTED_EDGE('',*,*,#216,.F.);
#250=ORIENTED_EDGE('',*,*,#216,.T.);
#251=ORIENTED_EDGE('',*,*,#217,.F.);
#252=ORIENTED_EDGE('',*,*,#218,.F.);
#253=ORIENTED_EDGE('',*,*,#217,.T.);
#254=ORIENTED_EDGE('',*,*,#218,.T.);
#255=ORIENTED_EDGE('',*,*,#219,.F.);
#256=ORIENTED_EDGE('',*,*,#219,.T.);
#257=ORIENTED_EDGE('',*,*,#220,.F.);
#258=ORIENTED_EDGE('',*,*,#220,.T.);
#259=ORIENTED_EDGE('',*,*,#221,.F.);
#260=ORIENTED_EDGE('',*,*,#221,.T.);
#261=ORIENTED_EDGE('',*,*,#222,.F.);
#262=ORIENTED_EDGE('',*,*,#222,.T.);
#263=ORIENTED_EDGE('',*,*,#223,.F.);
#264=ORIENTED_EDGE('',*,*,#223,.T.);
#265=ORIENTED_EDGE('',*,*,#224,.F.);
#266=ORIENTED_EDGE('',*,*,#224,.T.);
#267=ORIENTED_EDGE('',*,*,#225,.F.);
#268=ORIENTED_EDGE('',*,*,#225,.T.);
#269=ORIENTED_EDGE('',*,*,#226,.F.);
#270=ORIENTED_EDGE('',*,*,#226,.T.);
#271=ORIENTED_EDGE('',*,*,#227,.F.);
#272=ORIENTED_EDGE('',*,*,#227,.T.);
#273=ORIENTED_EDGE('',*,*,#228,.F.);
#274=ORIENTED_EDGE('',*,*,#229,.F.);
#275=ORIENTED_EDGE('',*,*,#228,.T.);
#276=ORIENTED_EDGE('',*,*,#229,.T.);
#277=ORIENTED_EDGE('',*,*,#230,.F.);
#278=ORIENTED_EDGE('',*,*,#230,.T.);
#279=ORIENTED_EDGE('',*,*,#231,.F.);
#280=ORIENTED_EDGE('',*,*,#231,.T.);
#281=ORIENTED_EDGE('',*,*,#232,.F.);
#282=ORIENTED_EDGE('',*,*,#232,.T.);
#283=ORIENTED_EDGE('',*,*,#233,.F.);
#284=ORIENTED_EDGE('',*,*,#233,.T.);
#285=ORIENTED_EDGE('',*,*,#234,.F.);
#286=ORIENTED_EDGE('',*,*,#234,.T.);
#287=ORIENTED_EDGE('',*,*,#235,.F.);
#288=ORIENTED_EDGE('',*,*,#235,.T.);
#289=ORIENTED_EDGE('',*,*,#236,.F.);
#290=ORIENTED_EDGE('',*,*,#236,.T.);
#291=ORIENTED_EDGE('',*,*,#237,.F.);
#292=ORIENTED_EDGE('',*,*,#237,.T.);
#293=ORIENTED_EDGE('',*,*,#238,.F.);
#294=ORIENTED_EDGE('',*,*,#238,.T.);
#295=ORIENTED_EDGE('',*,*,#239,.F.);
#296=ORIENTED_EDGE('',*,*,#239,.T.);
#297=ORIENTED_EDGE('',*,*,#215,.F.);
#298=CONICAL_SURFACE('',#336,37.1810889132455,14.9999999999999);
#299=CONICAL_SURFACE('',#345,36.725,15.);
#300=CONICAL_SURFACE('',#355,40.375,85.);
#301=CONICAL_SURFACE('',#363,40.375,83.);
#302=CONICAL_SURFACE('',#379,41.9359346717026,83.0000000000001);
#303=CONICAL_SURFACE('',#387,41.8435778713738,84.9999999999998);
#304=CONICAL_SURFACE('',#393,38.825,15.);
#305=ADVANCED_FACE('',(#66,#37),#298,.T.);
#306=ADVANCED_FACE('',(#67,#38),#34,.T.);
#307=ADVANCED_FACE('',(#68,#39),#25,.F.);
#308=ADVANCED_FACE('',(#69,#40),#26,.T.);
#309=ADVANCED_FACE('',(#70,#41),#299,.F.);
#310=ADVANCED_FACE('',(#71,#42),#27,.F.);
#311=ADVANCED_FACE('',(#72,#43),#35,.T.);
#312=ADVANCED_FACE('',(#73,#44),#28,.F.);
#313=ADVANCED_FACE('',(#74,#45),#15,.T.);
#314=ADVANCED_FACE('',(#75,#46),#300,.F.);
#315=ADVANCED_FACE('',(#76,#47),#16,.F.);
#316=ADVANCED_FACE('',(#77,#48),#29,.F.);
#317=ADVANCED_FACE('',(#78,#49),#17,.F.);
#318=ADVANCED_FACE('',(#79,#50),#301,.F.);
#319=ADVANCED_FACE('',(#80,#51),#18,.T.);
#320=ADVANCED_FACE('',(#81,#52),#30,.F.);
#321=ADVANCED_FACE('',(#82,#53),#19,.T.);
#322=ADVANCED_FACE('',(#83,#54),#36,.T.);
#323=ADVANCED_FACE('',(#84,#55),#20,.T.);
#324=ADVANCED_FACE('',(#85,#56),#31,.T.);
#325=ADVANCED_FACE('',(#86,#57),#21,.F.);
#326=ADVANCED_FACE('',(#87,#58),#302,.T.);
#327=ADVANCED_FACE('',(#88,#59),#22,.T.);
#328=ADVANCED_FACE('',(#89,#60),#32,.T.);
#329=ADVANCED_FACE('',(#90,#61),#23,.T.);
#330=ADVANCED_FACE('',(#91,#62),#303,.T.);
#331=ADVANCED_FACE('',(#92,#63),#24,.F.);
#332=ADVANCED_FACE('',(#93,#64),#33,.T.);
#333=ADVANCED_FACE('',(#94,#65),#304,.T.);
#334=CLOSED_SHELL('',(#305,#306,#307,#308,#309,#310,#311,#312,#313,#314,
#315,#316,#317,#318,#319,#320,#321,#322,#323,#324,#325,#326,#327,#328,#329,
#330,#331,#332,#333));
#335=AXIS2_PLACEMENT_3D('placement',#512,#394,#395);
#336=AXIS2_PLACEMENT_3D('',#513,#396,#397);
#337=AXIS2_PLACEMENT_3D('',#515,#398,#399);
#338=AXIS2_PLACEMENT_3D('',#517,#400,#401);
#339=AXIS2_PLACEMENT_3D('',#518,#402,#403);
#340=AXIS2_PLACEMENT_3D('',#520,#404,#405);
#341=AXIS2_PLACEMENT_3D('',#521,#406,#407);
#342=AXIS2_PLACEMENT_3D('',#523,#408,#409);
#343=AXIS2_PLACEMENT_3D('',#524,#410,#411);
#344=AXIS2_PLACEMENT_3D('',#526,#412,#413);
#345=AXIS2_PLACEMENT_3D('',#527,#414,#415);
#346=AXIS2_PLACEMENT_3D('',#529,#416,#417);
#347=AXIS2_PLACEMENT_3D('',#530,#418,#419);
#348=AXIS2_PLACEMENT_3D('',#532,#420,#421);
#349=AXIS2_PLACEMENT_3D('',#533,#422,#423);
#350=AXIS2_PLACEMENT_3D('',#535,#424,#425);
#351=AXIS2_PLACEMENT_3D('',#536,#426,#427);
#352=AXIS2_PLACEMENT_3D('',#538,#428,#429);
#353=AXIS2_PLACEMENT_3D('',#539,#430,#431);
#354=AXIS2_PLACEMENT_3D('',#541,#432,#433);
#355=AXIS2_PLACEMENT_3D('',#542,#434,#435);
#356=AXIS2_PLACEMENT_3D('',#544,#436,#437);
#357=AXIS2_PLACEMENT_3D('',#545,#438,#439);
#358=AXIS2_PLACEMENT_3D('',#547,#440,#441);
#359=AXIS2_PLACEMENT_3D('',#548,#442,#443);
#360=AXIS2_PLACEMENT_3D('',#550,#444,#445);
#361=AXIS2_PLACEMENT_3D('',#551,#446,#447);
#362=AXIS2_PLACEMENT_3D('',#553,#448,#449);
#363=AXIS2_PLACEMENT_3D('',#554,#450,#451);
#364=AXIS2_PLACEMENT_3D('',#556,#452,#453);
#365=AXIS2_PLACEMENT_3D('',#557,#454,#455);
#366=AXIS2_PLACEMENT_3D('',#559,#456,#457);
#367=AXIS2_PLACEMENT_3D('',#560,#458,#459);
#368=AXIS2_PLACEMENT_3D('',#562,#460,#461);
#369=AXIS2_PLACEMENT_3D('',#563,#462,#463);
#370=AXIS2_PLACEMENT_3D('',#565,#464,#465);
#371=AXIS2_PLACEMENT_3D('',#566,#466,#467);
#372=AXIS2_PLACEMENT_3D('',#568,#468,#469);
#373=AXIS2_PLACEMENT_3D('',#569,#470,#471);
#374=AXIS2_PLACEMENT_3D('',#571,#472,#473);
#375=AXIS2_PLACEMENT_3D('',#572,#474,#475);
#376=AXIS2_PLACEMENT_3D('',#574,#476,#477);
#377=AXIS2_PLACEMENT_3D('',#575,#478,#479);
#378=AXIS2_PLACEMENT_3D('',#577,#480,#481);
#379=AXIS2_PLACEMENT_3D('',#578,#482,#483);
#380=AXIS2_PLACEMENT_3D('',#580,#484,#485);
#381=AXIS2_PLACEMENT_3D('',#581,#486,#487);
#382=AXIS2_PLACEMENT_3D('',#583,#488,#489);
#383=AXIS2_PLACEMENT_3D('',#584,#490,#491);
#384=AXIS2_PLACEMENT_3D('',#586,#492,#493);
#385=AXIS2_PLACEMENT_3D('',#587,#494,#495);
#386=AXIS2_PLACEMENT_3D('',#589,#496,#497);
#387=AXIS2_PLACEMENT_3D('',#590,#498,#499);
#388=AXIS2_PLACEMENT_3D('',#592,#500,#501);
#389=AXIS2_PLACEMENT_3D('',#593,#502,#503);
#390=AXIS2_PLACEMENT_3D('',#595,#504,#505);
#391=AXIS2_PLACEMENT_3D('',#596,#506,#507);
#392=AXIS2_PLACEMENT_3D('',#598,#508,#509);
#393=AXIS2_PLACEMENT_3D('',#599,#510,#511);
#394=DIRECTION('axis',(0.,0.,1.));
#395=DIRECTION('refdir',(1.,0.,0.));
#396=DIRECTION('center_axis',(-1.29526019539602E-16,1.,0.));
#397=DIRECTION('ref_axis',(1.,1.29526019539602E-16,0.));
#398=DIRECTION('center_axis',(1.29526019539602E-16,-1.,0.));
#399=DIRECTION('ref_axis',(1.,1.29526019539602E-16,0.));
#400=DIRECTION('center_axis',(1.29526019539602E-16,-1.,0.));
#401=DIRECTION('ref_axis',(1.,1.29526019539602E-16,0.));
#402=DIRECTION('center_axis',(1.29526019539602E-16,-1.,0.));
#403=DIRECTION('ref_axis',(0.,0.,-1.));
#404=DIRECTION('center_axis',(1.29526019539602E-16,-1.,0.));
#405=DIRECTION('ref_axis',(1.,1.29526019539602E-16,0.));
#406=DIRECTION('center_axis',(1.29526019539602E-16,-1.,0.));
#407=DIRECTION('ref_axis',(1.,1.29526019539602E-16,0.));
#408=DIRECTION('center_axis',(1.29526019539602E-16,-1.,0.));
#409=DIRECTION('ref_axis',(1.,1.29526019539602E-16,0.));
#410=DIRECTION('center_axis',(1.29526019539602E-16,-1.,0.));
#411=DIRECTION('ref_axis',(1.,1.29193493502641E-16,0.));
#412=DIRECTION('center_axis',(1.29526019539602E-16,-1.,0.));
#413=DIRECTION('ref_axis',(1.,1.29526019539602E-16,0.));
#414=DIRECTION('center_axis',(-1.29526019539602E-16,1.,0.));
#415=DIRECTION('ref_axis',(1.,1.29193493502641E-16,0.));
#416=DIRECTION('center_axis',(1.29526019539602E-16,-1.,0.));
#417=DIRECTION('ref_axis',(1.,1.29526019539602E-16,0.));
#418=DIRECTION('center_axis',(1.29526019539602E-16,-1.,0.));
#419=DIRECTION('ref_axis',(1.,1.29193493502641E-16,0.));
#420=DIRECTION('center_axis',(1.29526019539602E-16,-1.,0.));
#421=DIRECTION('ref_axis',(1.,1.29526019539602E-16,0.));
#422=DIRECTION('center_axis',(-1.29526019539602E-16,1.,0.));
#423=DIRECTION('ref_axis',(0.,0.,1.));
#424=DIRECTION('center_axis',(1.29526019539602E-16,-1.,0.));
#425=DIRECTION('ref_axis',(1.,1.29526019539602E-16,0.));
#426=DIRECTION('center_axis',(1.29526019539602E-16,-1.,0.));
#427=DIRECTION('ref_axis',(1.,1.29193493502641E-16,0.));
#428=DIRECTION('center_axis',(1.29526019539602E-16,-1.,0.));
#429=DIRECTION('ref_axis',(1.,1.29526019539602E-16,0.));
#430=DIRECTION('center_axis',(1.29526019539602E-16,-1.,0.));
#431=DIRECTION('ref_axis',(0.,0.,-1.));
#432=DIRECTION('center_axis',(1.29526019539602E-16,-1.,0.));
#433=DIRECTION('ref_axis',(1.,1.29526019539602E-16,0.));
#434=DIRECTION('center_axis',(-1.29526019539602E-16,1.,0.));
#435=DIRECTION('ref_axis',(1.,1.29193493502641E-16,0.));
#436=DIRECTION('center_axis',(1.29526019539602E-16,-1.,0.));
#437=DIRECTION('ref_axis',(1.,1.29526019539602E-16,0.));
#438=DIRECTION('center_axis',(1.29526019539602E-16,-1.,0.));
#439=DIRECTION('ref_axis',(0.,0.,-1.));
#440=DIRECTION('center_axis',(1.29526019539602E-16,-1.,0.));
#441=DIRECTION('ref_axis',(1.,1.29526019539602E-16,0.));
#442=DIRECTION('center_axis',(1.29526019539602E-16,-1.,0.));
#443=DIRECTION('ref_axis',(1.,1.29193493502641E-16,0.));
#444=DIRECTION('center_axis',(1.29526019539602E-16,-1.,0.));
#445=DIRECTION('ref_axis',(1.,1.29526019539602E-16,0.));
#446=DIRECTION('center_axis',(1.29526019539602E-16,-1.,0.));
#447=DIRECTION('ref_axis',(0.,0.,-1.));
#448=DIRECTION('center_axis',(1.29526019539602E-16,-1.,0.));
#449=DIRECTION('ref_axis',(1.,1.29526019539602E-16,0.));
#450=DIRECTION('center_axis',(1.29526019539602E-16,-1.,0.));
#451=DIRECTION('ref_axis',(1.,1.29193493502641E-16,0.));
#452=DIRECTION('center_axis',(1.29526019539602E-16,-1.,0.));
#453=DIRECTION('ref_axis',(1.,1.29526019539602E-16,0.));
#454=DIRECTION('center_axis',(1.29526019539602E-16,-1.,0.));
#455=DIRECTION('ref_axis',(0.,0.,-1.));
#456=DIRECTION('center_axis',(1.29526019539602E-16,-1.,0.));
#457=DIRECTION('ref_axis',(1.,1.29526019539602E-16,0.));
#458=DIRECTION('center_axis',(1.29526019539602E-16,-1.,0.));
#459=DIRECTION('ref_axis',(1.,1.29193493502641E-16,0.));
#460=DIRECTION('center_axis',(1.29526019539602E-16,-1.,0.));
#461=DIRECTION('ref_axis',(1.,1.29526019539602E-16,0.));
#462=DIRECTION('center_axis',(1.29526019539602E-16,-1.,0.));
#463=DIRECTION('ref_axis',(0.,0.,-1.));
#464=DIRECTION('center_axis',(1.29526019539602E-16,-1.,0.));
#465=DIRECTION('ref_axis',(1.,1.29526019539602E-16,0.));
#466=DIRECTION('center_axis',(-1.29526019539602E-16,1.,0.));
#467=DIRECTION('ref_axis',(0.,0.,1.));
#468=DIRECTION('center_axis',(1.29526019539602E-16,-1.,0.));
#469=DIRECTION('ref_axis',(1.,1.29526019539602E-16,0.));
#470=DIRECTION('center_axis',(1.29526019539602E-16,-1.,0.));
#471=DIRECTION('ref_axis',(0.,0.,-1.));
#472=DIRECTION('center_axis',(1.29526019539602E-16,-1.,0.));
#473=DIRECTION('ref_axis',(1.,1.29526019539602E-16,0.));
#474=DIRECTION('center_axis',(1.29526019539602E-16,-1.,0.));
#475=DIRECTION('ref_axis',(1.,1.29193493502641E-16,0.));
#476=DIRECTION('center_axis',(1.29526019539602E-16,-1.,0.));
#477=DIRECTION('ref_axis',(1.,1.29526019539602E-16,0.));
#478=DIRECTION('center_axis',(1.29526019539602E-16,-1.,0.));
#479=DIRECTION('ref_axis',(0.,0.,-1.));
#480=DIRECTION('center_axis',(1.29526019539602E-16,-1.,0.));
#481=DIRECTION('ref_axis',(1.,1.29526019539602E-16,0.));
#482=DIRECTION('center_axis',(1.29526019539602E-16,-1.,0.));
#483=DIRECTION('ref_axis',(1.,1.29193493502641E-16,0.));
#484=DIRECTION('center_axis',(1.29526019539602E-16,-1.,0.));
#485=DIRECTION('ref_axis',(1.,1.29526019539602E-16,0.));
#486=DIRECTION('center_axis',(1.29526019539602E-16,-1.,0.));
#487=DIRECTION('ref_axis',(0.,0.,-1.));
#488=DIRECTION('center_axis',(1.29526019539602E-16,-1.,0.));
#489=DIRECTION('ref_axis',(1.,1.29526019539602E-16,0.));
#490=DIRECTION('center_axis',(1.29526019539602E-16,-1.,0.));
#491=DIRECTION('ref_axis',(1.,1.29193493502641E-16,0.));
#492=DIRECTION('center_axis',(1.29526019539602E-16,-1.,0.));
#493=DIRECTION('ref_axis',(1.,1.29526019539602E-16,0.));
#494=DIRECTION('center_axis',(1.29526019539602E-16,-1.,0.));
#495=DIRECTION('ref_axis',(0.,0.,-1.));
#496=DIRECTION('center_axis',(1.29526019539602E-16,-1.,0.));
#497=DIRECTION('ref_axis',(1.,1.29526019539602E-16,0.));
#498=DIRECTION('center_axis',(-1.29526019539602E-16,1.,0.));
#499=DIRECTION('ref_axis',(1.,1.29193493502641E-16,0.));
#500=DIRECTION('center_axis',(1.29526019539602E-16,-1.,0.));
#501=DIRECTION('ref_axis',(1.,1.29526019539602E-16,0.));
#502=DIRECTION('center_axis',(1.29526019539602E-16,-1.,0.));
#503=DIRECTION('ref_axis',(0.,0.,-1.));
#504=DIRECTION('center_axis',(1.29526019539602E-16,-1.,0.));
#505=DIRECTION('ref_axis',(1.,1.29526019539602E-16,0.));
#506=DIRECTION('center_axis',(1.29526019539602E-16,-1.,0.));
#507=DIRECTION('ref_axis',(1.,1.29193493502641E-16,0.));
#508=DIRECTION('center_axis',(1.29526019539602E-16,-1.,0.));
#509=DIRECTION('ref_axis',(1.,1.29526019539602E-16,0.));
#510=DIRECTION('center_axis',(-1.29526019539602E-16,1.,0.));
#511=DIRECTION('ref_axis',(1.,1.29193493502641E-16,0.));
#512=CARTESIAN_POINT('',(0.,0.,0.));
#513=CARTESIAN_POINT('Origin',(3.19972362140337E-14,-247.033270440699,0.));
#514=CARTESIAN_POINT('',(37.65,-245.283270440699,0.));
#515=CARTESIAN_POINT('Origin',(3.17705656798394E-14,-245.283270440699,0.));
#516=CARTESIAN_POINT('',(36.7121778264911,-248.783270440699,0.));
#517=CARTESIAN_POINT('Origin',(3.2223906748228E-14,-248.783270440699,0.));
#518=CARTESIAN_POINT('Origin',(35.45,-248.783270440699,0.));
#519=CARTESIAN_POINT('',(35.45,-248.783270440699,0.));
#520=CARTESIAN_POINT('Origin',(3.2223906748228E-14,-248.783270440699,0.));
#521=CARTESIAN_POINT('Origin',(1.6111953374114E-14,-124.39163522035,0.));
#522=CARTESIAN_POINT('',(35.45,2.77555756156289E-15,0.));
#523=CARTESIAN_POINT('Origin',(2.46519032881566E-31,-1.66533453693773E-15,
0.));
#524=CARTESIAN_POINT('Origin',(-3.12873446074524E-17,0.241552583169489,
0.));
#525=CARTESIAN_POINT('',(37.65,0.483105166338985,0.));
#526=CARTESIAN_POINT('Origin',(-6.25746892149051E-17,0.48310516633898,0.));
#527=CARTESIAN_POINT('Origin',(-6.16332049425541E-16,4.75836477965033,0.));
#528=CARTESIAN_POINT('',(38.,9.51672955930067,0.));
#529=CARTESIAN_POINT('Origin',(-1.23266409885108E-15,9.51672955930066,0.));
#530=CARTESIAN_POINT('Origin',(-3.29289844876775E-15,25.4226792460103,0.));
#531=CARTESIAN_POINT('',(38.,41.3286289327199,0.));
#532=CARTESIAN_POINT('Origin',(-5.35313279868442E-15,41.3286289327199,0.));
#533=CARTESIAN_POINT('Origin',(38.15,41.3286289327199,0.));
#534=CARTESIAN_POINT('',(38.15,41.3286289327199,0.));
#535=CARTESIAN_POINT('Origin',(-5.35313279868442E-15,41.3286289327199,0.));
#536=CARTESIAN_POINT('Origin',(-5.35855144367896E-15,41.3704633457112,0.));
#537=CARTESIAN_POINT('',(38.15,41.4122977587025,0.));
#538=CARTESIAN_POINT('Origin',(-5.3639700886735E-15,41.4122977587025,0.));
#539=CARTESIAN_POINT('Origin',(-5.3639700886735E-15,41.4122977587025,0.));
#540=CARTESIAN_POINT('',(39.0628442572523,42.4084924567943,0.));
#541=CARTESIAN_POINT('Origin',(-5.49300322260378E-15,42.4084924567942,0.));
#542=CARTESIAN_POINT('Origin',(-5.50787264803354E-15,42.5232912090651,0.));
#543=CARTESIAN_POINT('',(41.6871557427477,42.638089961336,0.));
#544=CARTESIAN_POINT('Origin',(-5.52274207346329E-15,42.638089961336,0.));
#545=CARTESIAN_POINT('Origin',(-5.65177520739357E-15,43.6342846594277,0.));
#546=CARTESIAN_POINT('',(42.6,43.6342846594277,0.));
#547=CARTESIAN_POINT('Origin',(-5.65177520739357E-15,43.6342846594277,0.));
#548=CARTESIAN_POINT('Origin',(-6.06725032482112E-15,46.8419422320479,0.));
#549=CARTESIAN_POINT('',(42.6,50.049599804668,0.));
#550=CARTESIAN_POINT('Origin',(-6.48272544224867E-15,50.049599804668,0.));
#551=CARTESIAN_POINT('Origin',(-6.48272544224867E-15,50.049599804668,0.));
#552=CARTESIAN_POINT('',(41.7218693434051,51.0421459563094,0.));
#553=CARTESIAN_POINT('Origin',(-6.61128599448012E-15,51.0421459563094,0.));
#554=CARTESIAN_POINT('Origin',(-6.63270632899487E-15,51.2075207172329,0.));
#555=CARTESIAN_POINT('',(39.0281306565949,51.3728954781565,0.));
#556=CARTESIAN_POINT('Origin',(-6.65412666350961E-15,51.3728954781565,0.));
#557=CARTESIAN_POINT('Origin',(-6.78268721574106E-15,52.3654416297978,0.));
#558=CARTESIAN_POINT('',(38.15,52.3654416297979,0.));
#559=CARTESIAN_POINT('Origin',(-6.78268721574106E-15,52.3654416297978,0.));
#560=CARTESIAN_POINT('Origin',(-6.98029780572993E-15,53.8910855945492,0.));
#561=CARTESIAN_POINT('',(38.15,55.4167295593007,0.));
#562=CARTESIAN_POINT('Origin',(-7.17790839571879E-15,55.4167295593006,0.));
#563=CARTESIAN_POINT('Origin',(-7.17790839571879E-15,55.4167295593006,0.));
#564=CARTESIAN_POINT('',(38.95,56.2167295593007,0.));
#565=CARTESIAN_POINT('Origin',(-7.28152921135048E-15,56.2167295593007,0.));
#566=CARTESIAN_POINT('Origin',(39.65,56.2167295593007,0.));
#567=CARTESIAN_POINT('',(39.65,56.2167295593007,0.));
#568=CARTESIAN_POINT('Origin',(-7.28152921135048E-15,56.2167295593007,0.));
#569=CARTESIAN_POINT('Origin',(-7.21676620158068E-15,55.7167295593007,0.));
#570=CARTESIAN_POINT('',(40.15,55.7167295593007,0.));
#571=CARTESIAN_POINT('Origin',(-7.21676620158068E-15,55.7167295593007,0.));
#572=CARTESIAN_POINT('Origin',(-7.11432165056492E-15,54.9258108591052,0.));
#573=CARTESIAN_POINT('',(40.15,54.1348921589098,0.));
#574=CARTESIAN_POINT('Origin',(-7.01187709954917E-15,54.1348921589097,0.));
#575=CARTESIAN_POINT('Origin',(-7.01187709954917E-15,54.1348921589097,0.));
#576=CARTESIAN_POINT('',(41.0281306565949,53.1423460072684,0.));
#577=CARTESIAN_POINT('Origin',(-6.88331654731772E-15,53.1423460072684,0.));
#578=CARTESIAN_POINT('Origin',(-6.86887901796667E-15,53.0308816898875,0.));
#579=CARTESIAN_POINT('',(42.8437386868103,52.9194173725066,0.));
#580=CARTESIAN_POINT('Origin',(-6.85444148861563E-15,52.9194173725066,0.));
#581=CARTESIAN_POINT('Origin',(-6.59732038415273E-15,50.934325069224,0.));
#582=CARTESIAN_POINT('',(44.6,50.934325069224,0.));
#583=CARTESIAN_POINT('Origin',(-6.59732038415273E-15,50.934325069224,0.));
#584=CARTESIAN_POINT('Origin',(-6.06520343099788E-15,46.8261392773171,0.));
#585=CARTESIAN_POINT('',(44.6,42.7179534854103,0.));
#586=CARTESIAN_POINT('Origin',(-5.53308647784305E-15,42.7179534854103,0.));
#587=CARTESIAN_POINT('Origin',(-5.53308647784305E-15,42.7179534854103,0.));
#588=CARTESIAN_POINT('',(42.7743114854953,40.7255640892268,0.));
#589=CARTESIAN_POINT('Origin',(-5.27502020998249E-15,40.7255640892268,0.));
#590=CARTESIAN_POINT('Origin',(-5.264473082367E-15,40.6441354492286,0.));
#591=CARTESIAN_POINT('',(40.9128442572523,40.5627068092305,0.));
#592=CARTESIAN_POINT('Origin',(-5.25392595475152E-15,40.5627068092305,0.));
#593=CARTESIAN_POINT('Origin',(-5.12489282082124E-15,39.5665121111388,0.));
#594=CARTESIAN_POINT('',(40.,39.5665121111388,0.));
#595=CARTESIAN_POINT('Origin',(-5.12489282082124E-15,39.5665121111388,0.));
#596=CARTESIAN_POINT('Origin',(-3.16172603586122E-15,24.4099683376323,0.));
#597=CARTESIAN_POINT('',(40.,9.25342456412588,0.));
#598=CARTESIAN_POINT('Origin',(-1.1985592509012E-15,9.25342456412587,0.));
#599=CARTESIAN_POINT('Origin',(-6.30566970058051E-16,4.86826486523243,0.));
#600=UNCERTAINTY_MEASURE_WITH_UNIT(LENGTH_MEASURE(0.01),#604,
'DISTANCE_ACCURACY_VALUE',
'Maximum model space distance between geometric entities at asserted c
onnectivities');
#601=UNCERTAINTY_MEASURE_WITH_UNIT(LENGTH_MEASURE(1.E-6),#604,
'DISTANCE_ACCURACY_VALUE',
'Maximum model space distance between geometric entities at asserted c
onnectivities');
#602=(
GEOMETRIC_REPRESENTATION_CONTEXT(3)
GLOBAL_UNCERTAINTY_ASSIGNED_CONTEXT((#600))
GLOBAL_UNIT_ASSIGNED_CONTEXT((#604,#607,#605))
REPRESENTATION_CONTEXT('','3D')
);
#603=(
GEOMETRIC_REPRESENTATION_CONTEXT(3)
GLOBAL_UNCERTAINTY_ASSIGNED_CONTEXT((#601))
GLOBAL_UNIT_ASSIGNED_CONTEXT((#604,#607,#605))
REPRESENTATION_CONTEXT('','3D')
);
#604=(
LENGTH_UNIT()
NAMED_UNIT(*)
SI_UNIT(.MILLI.,.METRE.)
);
#605=(
NAMED_UNIT(*)
SI_UNIT($,.STERADIAN.)
SOLID_ANGLE_UNIT()
);
#606=DIMENSIONAL_EXPONENTS(0.,0.,0.,0.,0.,0.,0.);
#607=(
CONVERSION_BASED_UNIT('degree',#609)
NAMED_UNIT(#606)
PLANE_ANGLE_UNIT()
);
#608=(
NAMED_UNIT(*)
PLANE_ANGLE_UNIT()
SI_UNIT($,.RADIAN.)
);
#609=PLANE_ANGLE_MEASURE_WITH_UNIT(PLANE_ANGLE_MEASURE(0.01745329252),#608);
#610=SHAPE_DEFINITION_REPRESENTATION(#611,#612);
#611=PRODUCT_DEFINITION_SHAPE('',$,#614);
#612=SHAPE_REPRESENTATION('',(#335),#602);
#613=PRODUCT_DEFINITION_CONTEXT('part definition',#618,'design');
#614=PRODUCT_DEFINITION('173010 HTsafeEM DN_OD 75x250',
'173010 HTsafeEM DN_OD 75x250',#615,#613);
#615=PRODUCT_DEFINITION_FORMATION('',$,#620);
#616=PRODUCT_RELATED_PRODUCT_CATEGORY('173010 HTsafeEM DN_OD 75x250',
'173010 HTsafeEM DN_OD 75x250',(#620));
#617=APPLICATION_PROTOCOL_DEFINITION('international standard',
'automotive_design',2009,#618);
#618=APPLICATION_CONTEXT(
'Core Data for Automotive Mechanical Design Process');
#619=PRODUCT_CONTEXT('part definition',#618,'mechanical');
#620=PRODUCT('173010 HTsafeEM DN_OD 75x250',
'173010 HTsafeEM DN_OD 75x250',$,(#619));
#621=PRESENTATION_STYLE_ASSIGNMENT((#622));
#622=SURFACE_STYLE_USAGE(.BOTH.,#623);
#623=SURFACE_SIDE_STYLE('',(#624));
#624=SURFACE_STYLE_FILL_AREA(#625);
#625=FILL_AREA_STYLE('',(#626));
#626=FILL_AREA_STYLE_COLOUR('',#627);
#627=COLOUR_RGB('',0.749019607843137,0.749019607843137,0.749019607843137);
ENDSEC;
END-ISO-10303-21;
