ISO-10303-21;
HEADER;
/* Generated by software containing ST-Developer
 * from STEP Tools, Inc. (www.steptools.com) 
 */

FILE_DESCRIPTION(
/* description */ (''),
/* implementation_level */ '2;1');

FILE_NAME(
/* name */ 
'Y:\\ACad-Dateien\\Ostendorf\\HT safe\\Kundenzeichnung\\172820 HTsafeU
G DN_OD 50.stp',
/* time_stamp */ '2017-03-13T09:16:42+01:00',
/* author */ ('user1'),
/* organization */ (''),
/* preprocessor_version */ 'ST-DEVELOPER v16.1',
/* originating_system */ 'Autodesk Inventor 2016',
/* authorisation */ '');

FILE_SCHEMA (('AUTOMOTIVE_DESIGN { 1 0 10303 214 3 1 1 }'));
ENDSEC;

DATA;
#10=MECHANICAL_DESIGN_GEOMETRIC_PRESENTATION_REPRESENTATION('',(#13),#363);
#11=SHAPE_REPRESENTATION_RELATIONSHIP('SRR','None',#372,#12);
#12=ADVANCED_BREP_SHAPE_REPRESENTATION('',(#14),#362);
#13=STYLED_ITEM('',(#381),#14);
#14=MANIFOLD_SOLID_BREP('Volumenk\X\F6rper1',#202);
#15=CONICAL_SURFACE('',#215,31.55,45.);
#16=CONICAL_SURFACE('',#221,24.6310889132455,15.);
#17=CONICAL_SURFACE('',#229,29.55,45.);
#18=CONICAL_SURFACE('',#235,36.7279404685324,19.9999999999999);
#19=TOROIDAL_SURFACE('',#209,39.,0.999999999999996);
#20=TOROIDAL_SURFACE('',#213,36.5,1.50000000000002);
#21=TOROIDAL_SURFACE('',#217,26.6,1.50000000000002);
#22=TOROIDAL_SURFACE('',#227,24.6,1.50000000000002);
#23=TOROIDAL_SURFACE('',#231,34.5,1.50000000000002);
#24=PLANE('',#207);
#25=PLANE('',#223);
#26=PLANE('',#237);
#27=FACE_BOUND('',#62,.T.);
#28=FACE_BOUND('',#64,.T.);
#29=FACE_BOUND('',#66,.T.);
#30=FACE_BOUND('',#68,.T.);
#31=FACE_BOUND('',#70,.T.);
#32=FACE_BOUND('',#72,.T.);
#33=FACE_BOUND('',#74,.T.);
#34=FACE_BOUND('',#76,.T.);
#35=FACE_BOUND('',#78,.T.);
#36=FACE_BOUND('',#80,.T.);
#37=FACE_BOUND('',#82,.T.);
#38=FACE_BOUND('',#84,.T.);
#39=FACE_BOUND('',#86,.T.);
#40=FACE_BOUND('',#88,.T.);
#41=FACE_BOUND('',#90,.T.);
#42=FACE_BOUND('',#92,.T.);
#43=FACE_BOUND('',#94,.T.);
#44=FACE_OUTER_BOUND('',#61,.T.);
#45=FACE_OUTER_BOUND('',#63,.T.);
#46=FACE_OUTER_BOUND('',#65,.T.);
#47=FACE_OUTER_BOUND('',#67,.T.);
#48=FACE_OUTER_BOUND('',#69,.T.);
#49=FACE_OUTER_BOUND('',#71,.T.);
#50=FACE_OUTER_BOUND('',#73,.T.);
#51=FACE_OUTER_BOUND('',#75,.T.);
#52=FACE_OUTER_BOUND('',#77,.T.);
#53=FACE_OUTER_BOUND('',#79,.T.);
#54=FACE_OUTER_BOUND('',#81,.T.);
#55=FACE_OUTER_BOUND('',#83,.T.);
#56=FACE_OUTER_BOUND('',#85,.T.);
#57=FACE_OUTER_BOUND('',#87,.T.);
#58=FACE_OUTER_BOUND('',#89,.T.);
#59=FACE_OUTER_BOUND('',#91,.T.);
#60=FACE_OUTER_BOUND('',#93,.T.);
#61=EDGE_LOOP('',(#146));
#62=EDGE_LOOP('',(#147));
#63=EDGE_LOOP('',(#148));
#64=EDGE_LOOP('',(#149));
#65=EDGE_LOOP('',(#150));
#66=EDGE_LOOP('',(#151));
#67=EDGE_LOOP('',(#152));
#68=EDGE_LOOP('',(#153));
#69=EDGE_LOOP('',(#154));
#70=EDGE_LOOP('',(#155));
#71=EDGE_LOOP('',(#156));
#72=EDGE_LOOP('',(#157));
#73=EDGE_LOOP('',(#158));
#74=EDGE_LOOP('',(#159));
#75=EDGE_LOOP('',(#160));
#76=EDGE_LOOP('',(#161));
#77=EDGE_LOOP('',(#162));
#78=EDGE_LOOP('',(#163));
#79=EDGE_LOOP('',(#164));
#80=EDGE_LOOP('',(#165));
#81=EDGE_LOOP('',(#166));
#82=EDGE_LOOP('',(#167));
#83=EDGE_LOOP('',(#168));
#84=EDGE_LOOP('',(#169));
#85=EDGE_LOOP('',(#170));
#86=EDGE_LOOP('',(#171));
#87=EDGE_LOOP('',(#172));
#88=EDGE_LOOP('',(#173));
#89=EDGE_LOOP('',(#174));
#90=EDGE_LOOP('',(#175));
#91=EDGE_LOOP('',(#176));
#92=EDGE_LOOP('',(#177));
#93=EDGE_LOOP('',(#178));
#94=EDGE_LOOP('',(#179));
#95=CIRCLE('',#205,40.);
#96=CIRCLE('',#206,40.);
#97=CIRCLE('',#208,39.);
#98=CIRCLE('',#210,38.);
#99=CIRCLE('',#212,38.);
#100=CIRCLE('',#214,37.5606601717798);
#101=CIRCLE('',#216,25.5393398282202);
#102=CIRCLE('',#218,25.1);
#103=CIRCLE('',#220,25.1);
#104=CIRCLE('',#222,24.1621778264911);
#105=CIRCLE('',#224,23.1);
#106=CIRCLE('',#226,23.1);
#107=CIRCLE('',#228,23.5393398282202);
#108=CIRCLE('',#230,35.5606601717798);
#109=CIRCLE('',#232,36.);
#110=CIRCLE('',#234,36.);
#111=CIRCLE('',#236,37.4558809370648);
#112=VERTEX_POINT('',#310);
#113=VERTEX_POINT('',#312);
#114=VERTEX_POINT('',#315);
#115=VERTEX_POINT('',#318);
#116=VERTEX_POINT('',#321);
#117=VERTEX_POINT('',#324);
#118=VERTEX_POINT('',#327);
#119=VERTEX_POINT('',#330);
#120=VERTEX_POINT('',#333);
#121=VERTEX_POINT('',#336);
#122=VERTEX_POINT('',#339);
#123=VERTEX_POINT('',#342);
#124=VERTEX_POINT('',#345);
#125=VERTEX_POINT('',#348);
#126=VERTEX_POINT('',#351);
#127=VERTEX_POINT('',#354);
#128=VERTEX_POINT('',#357);
#129=EDGE_CURVE('',#112,#112,#95,.T.);
#130=EDGE_CURVE('',#113,#113,#96,.T.);
#131=EDGE_CURVE('',#114,#114,#97,.T.);
#132=EDGE_CURVE('',#115,#115,#98,.T.);
#133=EDGE_CURVE('',#116,#116,#99,.T.);
#134=EDGE_CURVE('',#117,#117,#100,.T.);
#135=EDGE_CURVE('',#118,#118,#101,.T.);
#136=EDGE_CURVE('',#119,#119,#102,.T.);
#137=EDGE_CURVE('',#120,#120,#103,.T.);
#138=EDGE_CURVE('',#121,#121,#104,.T.);
#139=EDGE_CURVE('',#122,#122,#105,.T.);
#140=EDGE_CURVE('',#123,#123,#106,.T.);
#141=EDGE_CURVE('',#124,#124,#107,.T.);
#142=EDGE_CURVE('',#125,#125,#108,.T.);
#143=EDGE_CURVE('',#126,#126,#109,.T.);
#144=EDGE_CURVE('',#127,#127,#110,.T.);
#145=EDGE_CURVE('',#128,#128,#111,.T.);
#146=ORIENTED_EDGE('',*,*,#129,.F.);
#147=ORIENTED_EDGE('',*,*,#130,.T.);
#148=ORIENTED_EDGE('',*,*,#129,.T.);
#149=ORIENTED_EDGE('',*,*,#131,.F.);
#150=ORIENTED_EDGE('',*,*,#132,.F.);
#151=ORIENTED_EDGE('',*,*,#131,.T.);
#152=ORIENTED_EDGE('',*,*,#133,.F.);
#153=ORIENTED_EDGE('',*,*,#132,.T.);
#154=ORIENTED_EDGE('',*,*,#134,.F.);
#155=ORIENTED_EDGE('',*,*,#133,.T.);
#156=ORIENTED_EDGE('',*,*,#135,.F.);
#157=ORIENTED_EDGE('',*,*,#134,.T.);
#158=ORIENTED_EDGE('',*,*,#136,.F.);
#159=ORIENTED_EDGE('',*,*,#135,.T.);
#160=ORIENTED_EDGE('',*,*,#137,.F.);
#161=ORIENTED_EDGE('',*,*,#136,.T.);
#162=ORIENTED_EDGE('',*,*,#138,.F.);
#163=ORIENTED_EDGE('',*,*,#137,.T.);
#164=ORIENTED_EDGE('',*,*,#138,.T.);
#165=ORIENTED_EDGE('',*,*,#139,.F.);
#166=ORIENTED_EDGE('',*,*,#140,.F.);
#167=ORIENTED_EDGE('',*,*,#139,.T.);
#168=ORIENTED_EDGE('',*,*,#141,.F.);
#169=ORIENTED_EDGE('',*,*,#140,.T.);
#170=ORIENTED_EDGE('',*,*,#142,.F.);
#171=ORIENTED_EDGE('',*,*,#141,.T.);
#172=ORIENTED_EDGE('',*,*,#143,.F.);
#173=ORIENTED_EDGE('',*,*,#142,.T.);
#174=ORIENTED_EDGE('',*,*,#144,.F.);
#175=ORIENTED_EDGE('',*,*,#143,.T.);
#176=ORIENTED_EDGE('',*,*,#145,.F.);
#177=ORIENTED_EDGE('',*,*,#144,.T.);
#178=ORIENTED_EDGE('',*,*,#130,.F.);
#179=ORIENTED_EDGE('',*,*,#145,.T.);
#180=CYLINDRICAL_SURFACE('',#204,40.);
#181=CYLINDRICAL_SURFACE('',#211,38.);
#182=CYLINDRICAL_SURFACE('',#219,25.1);
#183=CYLINDRICAL_SURFACE('',#225,23.1);
#184=CYLINDRICAL_SURFACE('',#233,36.);
#185=ADVANCED_FACE('',(#44,#27),#180,.T.);
#186=ADVANCED_FACE('',(#45,#28),#24,.T.);
#187=ADVANCED_FACE('',(#46,#29),#19,.F.);
#188=ADVANCED_FACE('',(#47,#30),#181,.T.);
#189=ADVANCED_FACE('',(#48,#31),#20,.T.);
#190=ADVANCED_FACE('',(#49,#32),#15,.T.);
#191=ADVANCED_FACE('',(#50,#33),#21,.F.);
#192=ADVANCED_FACE('',(#51,#34),#182,.T.);
#193=ADVANCED_FACE('',(#52,#35),#16,.T.);
#194=ADVANCED_FACE('',(#53,#36),#25,.T.);
#195=ADVANCED_FACE('',(#54,#37),#183,.F.);
#196=ADVANCED_FACE('',(#55,#38),#22,.T.);
#197=ADVANCED_FACE('',(#56,#39),#17,.F.);
#198=ADVANCED_FACE('',(#57,#40),#23,.F.);
#199=ADVANCED_FACE('',(#58,#41),#184,.F.);
#200=ADVANCED_FACE('',(#59,#42),#18,.F.);
#201=ADVANCED_FACE('',(#60,#43),#26,.T.);
#202=CLOSED_SHELL('',(#185,#186,#187,#188,#189,#190,#191,#192,#193,#194,
#195,#196,#197,#198,#199,#200,#201));
#203=AXIS2_PLACEMENT_3D('placement',#308,#238,#239);
#204=AXIS2_PLACEMENT_3D('',#309,#240,#241);
#205=AXIS2_PLACEMENT_3D('',#311,#242,#243);
#206=AXIS2_PLACEMENT_3D('',#313,#244,#245);
#207=AXIS2_PLACEMENT_3D('',#314,#246,#247);
#208=AXIS2_PLACEMENT_3D('',#316,#248,#249);
#209=AXIS2_PLACEMENT_3D('',#317,#250,#251);
#210=AXIS2_PLACEMENT_3D('',#319,#252,#253);
#211=AXIS2_PLACEMENT_3D('',#320,#254,#255);
#212=AXIS2_PLACEMENT_3D('',#322,#256,#257);
#213=AXIS2_PLACEMENT_3D('',#323,#258,#259);
#214=AXIS2_PLACEMENT_3D('',#325,#260,#261);
#215=AXIS2_PLACEMENT_3D('',#326,#262,#263);
#216=AXIS2_PLACEMENT_3D('',#328,#264,#265);
#217=AXIS2_PLACEMENT_3D('',#329,#266,#267);
#218=AXIS2_PLACEMENT_3D('',#331,#268,#269);
#219=AXIS2_PLACEMENT_3D('',#332,#270,#271);
#220=AXIS2_PLACEMENT_3D('',#334,#272,#273);
#221=AXIS2_PLACEMENT_3D('',#335,#274,#275);
#222=AXIS2_PLACEMENT_3D('',#337,#276,#277);
#223=AXIS2_PLACEMENT_3D('',#338,#278,#279);
#224=AXIS2_PLACEMENT_3D('',#340,#280,#281);
#225=AXIS2_PLACEMENT_3D('',#341,#282,#283);
#226=AXIS2_PLACEMENT_3D('',#343,#284,#285);
#227=AXIS2_PLACEMENT_3D('',#344,#286,#287);
#228=AXIS2_PLACEMENT_3D('',#346,#288,#289);
#229=AXIS2_PLACEMENT_3D('',#347,#290,#291);
#230=AXIS2_PLACEMENT_3D('',#349,#292,#293);
#231=AXIS2_PLACEMENT_3D('',#350,#294,#295);
#232=AXIS2_PLACEMENT_3D('',#352,#296,#297);
#233=AXIS2_PLACEMENT_3D('',#353,#298,#299);
#234=AXIS2_PLACEMENT_3D('',#355,#300,#301);
#235=AXIS2_PLACEMENT_3D('',#356,#302,#303);
#236=AXIS2_PLACEMENT_3D('',#358,#304,#305);
#237=AXIS2_PLACEMENT_3D('',#359,#306,#307);
#238=DIRECTION('axis',(0.,0.,1.));
#239=DIRECTION('refdir',(1.,0.,0.));
#240=DIRECTION('center_axis',(0.,-1.,0.));
#241=DIRECTION('ref_axis',(1.,0.,0.));
#242=DIRECTION('center_axis',(0.,-1.,0.));
#243=DIRECTION('ref_axis',(1.,0.,0.));
#244=DIRECTION('center_axis',(0.,-1.,0.));
#245=DIRECTION('ref_axis',(1.,0.,0.));
#246=DIRECTION('center_axis',(0.,-1.,0.));
#247=DIRECTION('ref_axis',(0.,0.,-1.));
#248=DIRECTION('center_axis',(0.,-1.,0.));
#249=DIRECTION('ref_axis',(1.,0.,0.));
#250=DIRECTION('center_axis',(0.,-1.,0.));
#251=DIRECTION('ref_axis',(0.,0.,-1.));
#252=DIRECTION('center_axis',(0.,-1.,0.));
#253=DIRECTION('ref_axis',(1.,0.,0.));
#254=DIRECTION('center_axis',(0.,-1.,0.));
#255=DIRECTION('ref_axis',(1.,0.,0.));
#256=DIRECTION('center_axis',(0.,-1.,0.));
#257=DIRECTION('ref_axis',(1.,0.,0.));
#258=DIRECTION('center_axis',(0.,-1.,0.));
#259=DIRECTION('ref_axis',(0.,0.,-1.));
#260=DIRECTION('center_axis',(0.,-1.,0.));
#261=DIRECTION('ref_axis',(1.,0.,0.));
#262=DIRECTION('center_axis',(0.,1.,0.));
#263=DIRECTION('ref_axis',(1.,0.,0.));
#264=DIRECTION('center_axis',(0.,-1.,0.));
#265=DIRECTION('ref_axis',(1.,0.,0.));
#266=DIRECTION('center_axis',(0.,-1.,0.));
#267=DIRECTION('ref_axis',(0.,0.,-1.));
#268=DIRECTION('center_axis',(0.,-1.,0.));
#269=DIRECTION('ref_axis',(1.,0.,0.));
#270=DIRECTION('center_axis',(0.,-1.,0.));
#271=DIRECTION('ref_axis',(1.,0.,0.));
#272=DIRECTION('center_axis',(0.,-1.,0.));
#273=DIRECTION('ref_axis',(1.,0.,0.));
#274=DIRECTION('center_axis',(0.,1.,0.));
#275=DIRECTION('ref_axis',(1.,0.,0.));
#276=DIRECTION('center_axis',(0.,-1.,0.));
#277=DIRECTION('ref_axis',(1.,0.,0.));
#278=DIRECTION('center_axis',(0.,-1.,0.));
#279=DIRECTION('ref_axis',(0.,0.,-1.));
#280=DIRECTION('center_axis',(0.,-1.,0.));
#281=DIRECTION('ref_axis',(1.,0.,0.));
#282=DIRECTION('center_axis',(0.,-1.,0.));
#283=DIRECTION('ref_axis',(1.,0.,0.));
#284=DIRECTION('center_axis',(0.,-1.,0.));
#285=DIRECTION('ref_axis',(1.,0.,0.));
#286=DIRECTION('center_axis',(0.,-1.,0.));
#287=DIRECTION('ref_axis',(0.,0.,-1.));
#288=DIRECTION('center_axis',(0.,-1.,0.));
#289=DIRECTION('ref_axis',(1.,0.,0.));
#290=DIRECTION('center_axis',(0.,1.,0.));
#291=DIRECTION('ref_axis',(1.,0.,0.));
#292=DIRECTION('center_axis',(0.,-1.,0.));
#293=DIRECTION('ref_axis',(1.,0.,0.));
#294=DIRECTION('center_axis',(0.,-1.,0.));
#295=DIRECTION('ref_axis',(0.,0.,-1.));
#296=DIRECTION('center_axis',(0.,-1.,0.));
#297=DIRECTION('ref_axis',(1.,0.,0.));
#298=DIRECTION('center_axis',(0.,-1.,0.));
#299=DIRECTION('ref_axis',(1.,0.,0.));
#300=DIRECTION('center_axis',(0.,-1.,0.));
#301=DIRECTION('ref_axis',(1.,0.,0.));
#302=DIRECTION('center_axis',(0.,1.,0.));
#303=DIRECTION('ref_axis',(1.,0.,0.));
#304=DIRECTION('center_axis',(0.,-1.,0.));
#305=DIRECTION('ref_axis',(1.,0.,0.));
#306=DIRECTION('center_axis',(0.,1.,0.));
#307=DIRECTION('ref_axis',(0.,0.,1.));
#308=CARTESIAN_POINT('',(0.,0.,0.));
#309=CARTESIAN_POINT('Origin',(0.,116.25,0.));
#310=CARTESIAN_POINT('',(40.,114.5,0.));
#311=CARTESIAN_POINT('Origin',(0.,114.5,0.));
#312=CARTESIAN_POINT('',(40.,118.,0.));
#313=CARTESIAN_POINT('Origin',(0.,118.,0.));
#314=CARTESIAN_POINT('Origin',(39.,114.5,0.));
#315=CARTESIAN_POINT('',(39.,114.5,0.));
#316=CARTESIAN_POINT('Origin',(0.,114.5,0.));
#317=CARTESIAN_POINT('Origin',(0.,113.5,0.));
#318=CARTESIAN_POINT('',(38.,113.5,0.));
#319=CARTESIAN_POINT('Origin',(0.,113.5,0.));
#320=CARTESIAN_POINT('Origin',(0.,88.1464466094067,0.));
#321=CARTESIAN_POINT('',(38.,62.7928932188135,0.));
#322=CARTESIAN_POINT('Origin',(0.,62.7928932188135,0.));
#323=CARTESIAN_POINT('Origin',(0.,62.7928932188135,0.));
#324=CARTESIAN_POINT('',(37.5606601717798,61.7322330470336,0.));
#325=CARTESIAN_POINT('Origin',(0.,61.7322330470336,0.));
#326=CARTESIAN_POINT('Origin',(0.,55.7215728752538,0.));
#327=CARTESIAN_POINT('',(25.5393398282202,49.710912703474,0.));
#328=CARTESIAN_POINT('Origin',(0.,49.710912703474,0.));
#329=CARTESIAN_POINT('Origin',(0.,48.6502525316942,0.));
#330=CARTESIAN_POINT('',(25.1,48.6502525316942,0.));
#331=CARTESIAN_POINT('Origin',(0.,48.6502525316942,0.));
#332=CARTESIAN_POINT('Origin',(0.,26.0751262658471,0.));
#333=CARTESIAN_POINT('',(25.1,3.5,0.));
#334=CARTESIAN_POINT('Origin',(0.,3.5,0.));
#335=CARTESIAN_POINT('Origin',(0.,1.75000000000001,0.));
#336=CARTESIAN_POINT('',(24.1621778264911,0.,0.));
#337=CARTESIAN_POINT('Origin',(0.,0.,0.));
#338=CARTESIAN_POINT('Origin',(23.1,0.,0.));
#339=CARTESIAN_POINT('',(23.1,0.,0.));
#340=CARTESIAN_POINT('Origin',(0.,0.,0.));
#341=CARTESIAN_POINT('Origin',(0.,24.7393398282202,0.));
#342=CARTESIAN_POINT('',(23.1,49.4786796564404,0.));
#343=CARTESIAN_POINT('Origin',(0.,49.4786796564404,0.));
#344=CARTESIAN_POINT('Origin',(0.,49.4786796564404,0.));
#345=CARTESIAN_POINT('',(23.5393398282202,50.5393398282202,0.));
#346=CARTESIAN_POINT('Origin',(0.,50.5393398282202,0.));
#347=CARTESIAN_POINT('Origin',(0.,56.55,0.));
#348=CARTESIAN_POINT('',(35.5606601717798,62.5606601717798,0.));
#349=CARTESIAN_POINT('Origin',(0.,62.5606601717798,0.));
#350=CARTESIAN_POINT('Origin',(0.,63.6213203435597,0.));
#351=CARTESIAN_POINT('',(36.,63.6213203435597,0.));
#352=CARTESIAN_POINT('Origin',(0.,63.6213203435597,0.));
#353=CARTESIAN_POINT('Origin',(0.,88.8106601717798,0.));
#354=CARTESIAN_POINT('',(36.,114.,0.));
#355=CARTESIAN_POINT('Origin',(0.,114.,0.));
#356=CARTESIAN_POINT('Origin',(0.,116.,0.));
#357=CARTESIAN_POINT('',(37.4558809370648,118.,0.));
#358=CARTESIAN_POINT('Origin',(0.,118.,0.));
#359=CARTESIAN_POINT('Origin',(40.,118.,0.));
#360=UNCERTAINTY_MEASURE_WITH_UNIT(LENGTH_MEASURE(0.01),#364,
'DISTANCE_ACCURACY_VALUE',
'Maximum model space distance between geometric entities at asserted c
onnectivities');
#361=UNCERTAINTY_MEASURE_WITH_UNIT(LENGTH_MEASURE(1.E-6),#364,
'DISTANCE_ACCURACY_VALUE',
'Maximum model space distance between geometric entities at asserted c
onnectivities');
#362=(
GEOMETRIC_REPRESENTATION_CONTEXT(3)
GLOBAL_UNCERTAINTY_ASSIGNED_CONTEXT((#360))
GLOBAL_UNIT_ASSIGNED_CONTEXT((#364,#367,#365))
REPRESENTATION_CONTEXT('','3D')
);
#363=(
GEOMETRIC_REPRESENTATION_CONTEXT(3)
GLOBAL_UNCERTAINTY_ASSIGNED_CONTEXT((#361))
GLOBAL_UNIT_ASSIGNED_CONTEXT((#364,#367,#365))
REPRESENTATION_CONTEXT('','3D')
);
#364=(
LENGTH_UNIT()
NAMED_UNIT(*)
SI_UNIT(.MILLI.,.METRE.)
);
#365=(
NAMED_UNIT(*)
SI_UNIT($,.STERADIAN.)
SOLID_ANGLE_UNIT()
);
#366=DIMENSIONAL_EXPONENTS(0.,0.,0.,0.,0.,0.,0.);
#367=(
CONVERSION_BASED_UNIT('degree',#369)
NAMED_UNIT(#366)
PLANE_ANGLE_UNIT()
);
#368=(
NAMED_UNIT(*)
PLANE_ANGLE_UNIT()
SI_UNIT($,.RADIAN.)
);
#369=PLANE_ANGLE_MEASURE_WITH_UNIT(PLANE_ANGLE_MEASURE(0.01745329252),#368);
#370=SHAPE_DEFINITION_REPRESENTATION(#371,#372);
#371=PRODUCT_DEFINITION_SHAPE('',$,#374);
#372=SHAPE_REPRESENTATION('',(#203),#362);
#373=PRODUCT_DEFINITION_CONTEXT('part definition',#378,'design');
#374=PRODUCT_DEFINITION('172820 HTsafeUG DN_OD 50',
'172820 HTsafeUG DN_OD 50',#375,#373);
#375=PRODUCT_DEFINITION_FORMATION('',$,#380);
#376=PRODUCT_RELATED_PRODUCT_CATEGORY('172820 HTsafeUG DN_OD 50',
'172820 HTsafeUG DN_OD 50',(#380));
#377=APPLICATION_PROTOCOL_DEFINITION('international standard',
'automotive_design',2009,#378);
#378=APPLICATION_CONTEXT(
'Core Data for Automotive Mechanical Design Process');
#379=PRODUCT_CONTEXT('part definition',#378,'mechanical');
#380=PRODUCT('172820 HTsafeUG DN_OD 50','172820 HTsafeUG DN_OD 50',$,(#379));
#381=PRESENTATION_STYLE_ASSIGNMENT((#382));
#382=SURFACE_STYLE_USAGE(.BOTH.,#383);
#383=SURFACE_SIDE_STYLE('',(#384));
#384=SURFACE_STYLE_FILL_AREA(#385);
#385=FILL_AREA_STYLE('',(#386));
#386=FILL_AREA_STYLE_COLOUR('',#387);
#387=COLOUR_RGB('',0.749019607843137,0.749019607843137,0.749019607843137);
ENDSEC;
END-ISO-10303-21;
