ISO-10303-21;
HEADER;
/* Generated by software containing ST-Developer
 * from STEP Tools, Inc. (www.steptools.com) 
 */

FILE_DESCRIPTION(
/* description */ (''),
/* implementation_level */ '2;1');

FILE_NAME(
/* name */ 
'Y:\\ACad-Dateien\\Ostendorf\\HT safe\\Kundenzeichnung\\171910 HTsafeS
W DN_OD 40_30.stp',
/* time_stamp */ '2017-03-13T09:01:49+01:00',
/* author */ ('user1'),
/* organization */ (''),
/* preprocessor_version */ 'ST-DEVELOPER v16.1',
/* originating_system */ 'Autodesk Inventor 2016',
/* authorisation */ '');

FILE_SCHEMA (('AUTOMOTIVE_DESIGN { 1 0 10303 214 3 1 1 }'));
ENDSEC;

DATA;
#10=MECHANICAL_DESIGN_GEOMETRIC_PRESENTATION_REPRESENTATION('',(#13),#437);
#11=SHAPE_REPRESENTATION_RELATIONSHIP('SRR','None',#446,#12);
#12=ADVANCED_BREP_SHAPE_REPRESENTATION('',(#14),#436);
#13=STYLED_ITEM('',(#455),#14);
#14=MANIFOLD_SOLID_BREP('Volumenk\X\F6rper1',#208);
#15=PLANE('',#232);
#16=PLANE('',#236);
#17=PLANE('',#243);
#18=(
BOUNDED_SURFACE()
B_SPLINE_SURFACE(2,2,((#360,#361,#362),(#363,#364,#365),(#366,#367,#368),
(#369,#370,#371),(#372,#373,#374),(#375,#376,#377),(#378,#379,#380),(#381,
#382,#383),(#384,#385,#386)),.UNSPECIFIED.,.T.,.F.,.F.)
B_SPLINE_SURFACE_WITH_KNOTS((3,2,2,2,3),(3,3),(-3.14159265358979,-1.5707963267949,
0.,1.5707963267949,3.14159265358979),(1.5707963267949,3.14159265358979),
 .UNSPECIFIED.)
GEOMETRIC_REPRESENTATION_ITEM()
RATIONAL_B_SPLINE_SURFACE(((1.,0.707106781186548,1.),(0.707106781186547,
0.5,0.707106781186547),(1.,0.707106781186548,1.),(0.707106781186548,0.5,
0.707106781186548),(1.,0.707106781186548,1.),(0.707106781186548,0.5,0.707106781186548),
(1.,0.707106781186548,1.),(0.707106781186547,0.5,0.707106781186547),(1.,
0.707106781186548,1.)))
REPRESENTATION_ITEM('')
SURFACE()
);
#19=(
BOUNDED_SURFACE()
B_SPLINE_SURFACE(2,2,((#391,#392,#393),(#394,#395,#396),(#397,#398,#399),
(#400,#401,#402),(#403,#404,#405),(#406,#407,#408),(#409,#410,#411),(#412,
#413,#414),(#415,#416,#417)),.UNSPECIFIED.,.F.,.F.,.F.)
B_SPLINE_SURFACE_WITH_KNOTS((3,2,2,2,3),(3,3),(-2.70273326909618,-1.35136663454809,
0.,1.35136663454809,2.70273326909618),(1.5707963267949,3.14159265358979),
 .UNSPECIFIED.)
GEOMETRIC_REPRESENTATION_ITEM()
RATIONAL_B_SPLINE_SURFACE(((1.,0.707106781186548,1.),(0.780279765769838,
0.551741113598504,0.780279765769838),(1.,0.707106781186548,1.),(0.78027976576984,
0.551741113598505,0.78027976576984),(1.,0.707106781186548,1.),(0.78027976576984,
0.551741113598505,0.78027976576984),(1.,0.707106781186548,1.),(0.780279765769838,
0.551741113598504,0.780279765769838),(1.,0.707106781186548,1.)))
REPRESENTATION_ITEM('')
SURFACE()
);
#20=ELLIPSE('',#217,28.3549819255806,20.05);
#21=ELLIPSE('',#219,28.3549819255806,20.05);
#22=CYLINDRICAL_SURFACE('',#216,20.05);
#23=CYLINDRICAL_SURFACE('',#224,21.9);
#24=CYLINDRICAL_SURFACE('',#226,18.15);
#25=CYLINDRICAL_SURFACE('',#230,20.05);
#26=CYLINDRICAL_SURFACE('',#233,22.5);
#27=CYLINDRICAL_SURFACE('',#237,18.15);
#28=CYLINDRICAL_SURFACE('',#241,20.);
#29=B_SPLINE_CURVE_WITH_KNOTS('',3,(#325,#326,#327,#328,#329,#330,#331,
#332,#333,#334,#335,#336,#337,#338),.UNSPECIFIED.,.F.,.F.,(4,2,2,2,2,2,
4),(1.94087352273067,2.20599231478182,2.51617784727149,2.71145065385352,
2.89986331937691,3.17635549129981,3.46179199902386),.UNSPECIFIED.);
#30=TOROIDAL_SURFACE('',#213,21.05,1.);
#31=TOROIDAL_SURFACE('',#222,20.9,1.);
#32=FACE_BOUND('',#64,.T.);
#33=FACE_BOUND('',#66,.T.);
#34=FACE_BOUND('',#69,.T.);
#35=FACE_BOUND('',#71,.T.);
#36=FACE_BOUND('',#73,.T.);
#37=FACE_BOUND('',#75,.T.);
#38=FACE_BOUND('',#78,.T.);
#39=FACE_BOUND('',#80,.T.);
#40=FACE_BOUND('',#83,.T.);
#41=FACE_BOUND('',#85,.T.);
#42=FACE_BOUND('',#87,.T.);
#43=FACE_BOUND('',#89,.T.);
#44=FACE_BOUND('',#91,.T.);
#45=FACE_BOUND('',#93,.T.);
#46=FACE_OUTER_BOUND('',#63,.T.);
#47=FACE_OUTER_BOUND('',#65,.T.);
#48=FACE_OUTER_BOUND('',#67,.T.);
#49=FACE_OUTER_BOUND('',#68,.T.);
#50=FACE_OUTER_BOUND('',#70,.T.);
#51=FACE_OUTER_BOUND('',#72,.T.);
#52=FACE_OUTER_BOUND('',#74,.T.);
#53=FACE_OUTER_BOUND('',#76,.T.);
#54=FACE_OUTER_BOUND('',#77,.T.);
#55=FACE_OUTER_BOUND('',#79,.T.);
#56=FACE_OUTER_BOUND('',#81,.T.);
#57=FACE_OUTER_BOUND('',#82,.T.);
#58=FACE_OUTER_BOUND('',#84,.T.);
#59=FACE_OUTER_BOUND('',#86,.T.);
#60=FACE_OUTER_BOUND('',#88,.T.);
#61=FACE_OUTER_BOUND('',#90,.T.);
#62=FACE_OUTER_BOUND('',#92,.T.);
#63=EDGE_LOOP('',(#148));
#64=EDGE_LOOP('',(#149));
#65=EDGE_LOOP('',(#150));
#66=EDGE_LOOP('',(#151,#152));
#67=EDGE_LOOP('',(#153,#154,#155,#156));
#68=EDGE_LOOP('',(#157));
#69=EDGE_LOOP('',(#158));
#70=EDGE_LOOP('',(#159));
#71=EDGE_LOOP('',(#160));
#72=EDGE_LOOP('',(#161));
#73=EDGE_LOOP('',(#162));
#74=EDGE_LOOP('',(#163));
#75=EDGE_LOOP('',(#164));
#76=EDGE_LOOP('',(#165,#166));
#77=EDGE_LOOP('',(#167));
#78=EDGE_LOOP('',(#168,#169,#170,#171));
#79=EDGE_LOOP('',(#172));
#80=EDGE_LOOP('',(#173));
#81=EDGE_LOOP('',(#174,#175));
#82=EDGE_LOOP('',(#176));
#83=EDGE_LOOP('',(#177));
#84=EDGE_LOOP('',(#178));
#85=EDGE_LOOP('',(#179));
#86=EDGE_LOOP('',(#180));
#87=EDGE_LOOP('',(#181));
#88=EDGE_LOOP('',(#182));
#89=EDGE_LOOP('',(#183));
#90=EDGE_LOOP('',(#184));
#91=EDGE_LOOP('',(#185));
#92=EDGE_LOOP('',(#186));
#93=EDGE_LOOP('',(#187));
#94=CIRCLE('',#211,20.05);
#95=CIRCLE('',#212,19.1121778264911);
#96=CIRCLE('',#214,20.3428932188135);
#97=CIRCLE('',#215,20.05);
#98=CIRCLE('',#218,20.05);
#99=CIRCLE('',#221,21.6071067811865);
#100=CIRCLE('',#223,21.9);
#101=CIRCLE('',#225,21.9);
#102=CIRCLE('',#227,18.15);
#103=CIRCLE('',#228,18.15);
#104=CIRCLE('',#229,18.15);
#105=CIRCLE('',#231,20.05);
#106=CIRCLE('',#234,22.5);
#107=CIRCLE('',#235,22.5);
#108=CIRCLE('',#238,18.15);
#109=CIRCLE('',#240,20.);
#110=CIRCLE('',#242,20.);
#111=VERTEX_POINT('',#316);
#112=VERTEX_POINT('',#318);
#113=VERTEX_POINT('',#321);
#114=VERTEX_POINT('',#323);
#115=VERTEX_POINT('',#324);
#116=VERTEX_POINT('',#341);
#117=VERTEX_POINT('',#343);
#118=VERTEX_POINT('',#347);
#119=VERTEX_POINT('',#350);
#120=VERTEX_POINT('',#353);
#121=VERTEX_POINT('',#356);
#122=VERTEX_POINT('',#358);
#123=VERTEX_POINT('',#419);
#124=VERTEX_POINT('',#421);
#125=VERTEX_POINT('',#425);
#126=VERTEX_POINT('',#428);
#127=VERTEX_POINT('',#431);
#128=EDGE_CURVE('',#111,#111,#94,.T.);
#129=EDGE_CURVE('',#112,#112,#95,.T.);
#130=EDGE_CURVE('',#113,#113,#96,.T.);
#131=EDGE_CURVE('',#114,#115,#29,.T.);
#132=EDGE_CURVE('',#114,#115,#97,.T.);
#133=EDGE_CURVE('',#114,#116,#20,.T.);
#134=EDGE_CURVE('',#117,#116,#98,.T.);
#135=EDGE_CURVE('',#117,#115,#21,.T.);
#136=EDGE_CURVE('',#118,#118,#99,.T.);
#137=EDGE_CURVE('',#119,#119,#100,.T.);
#138=EDGE_CURVE('',#120,#120,#101,.T.);
#139=EDGE_CURVE('',#121,#121,#102,.T.);
#140=EDGE_CURVE('',#122,#122,#103,.T.);
#141=EDGE_CURVE('',#122,#122,#104,.T.);
#142=EDGE_CURVE('',#117,#116,#105,.T.);
#143=EDGE_CURVE('',#123,#123,#106,.T.);
#144=EDGE_CURVE('',#124,#124,#107,.T.);
#145=EDGE_CURVE('',#125,#125,#108,.T.);
#146=EDGE_CURVE('',#126,#126,#109,.T.);
#147=EDGE_CURVE('',#127,#127,#110,.T.);
#148=ORIENTED_EDGE('',*,*,#128,.F.);
#149=ORIENTED_EDGE('',*,*,#129,.F.);
#150=ORIENTED_EDGE('',*,*,#130,.T.);
#151=ORIENTED_EDGE('',*,*,#131,.F.);
#152=ORIENTED_EDGE('',*,*,#132,.T.);
#153=ORIENTED_EDGE('',*,*,#132,.F.);
#154=ORIENTED_EDGE('',*,*,#133,.T.);
#155=ORIENTED_EDGE('',*,*,#134,.F.);
#156=ORIENTED_EDGE('',*,*,#135,.T.);
#157=ORIENTED_EDGE('',*,*,#136,.F.);
#158=ORIENTED_EDGE('',*,*,#130,.F.);
#159=ORIENTED_EDGE('',*,*,#137,.T.);
#160=ORIENTED_EDGE('',*,*,#136,.T.);
#161=ORIENTED_EDGE('',*,*,#138,.T.);
#162=ORIENTED_EDGE('',*,*,#137,.F.);
#163=ORIENTED_EDGE('',*,*,#139,.F.);
#164=ORIENTED_EDGE('',*,*,#140,.F.);
#165=ORIENTED_EDGE('',*,*,#141,.F.);
#166=ORIENTED_EDGE('',*,*,#140,.T.);
#167=ORIENTED_EDGE('',*,*,#128,.T.);
#168=ORIENTED_EDGE('',*,*,#131,.T.);
#169=ORIENTED_EDGE('',*,*,#135,.F.);
#170=ORIENTED_EDGE('',*,*,#142,.T.);
#171=ORIENTED_EDGE('',*,*,#133,.F.);
#172=ORIENTED_EDGE('',*,*,#129,.T.);
#173=ORIENTED_EDGE('',*,*,#139,.T.);
#174=ORIENTED_EDGE('',*,*,#134,.T.);
#175=ORIENTED_EDGE('',*,*,#142,.F.);
#176=ORIENTED_EDGE('',*,*,#143,.T.);
#177=ORIENTED_EDGE('',*,*,#144,.F.);
#178=ORIENTED_EDGE('',*,*,#144,.T.);
#179=ORIENTED_EDGE('',*,*,#138,.F.);
#180=ORIENTED_EDGE('',*,*,#141,.T.);
#181=ORIENTED_EDGE('',*,*,#145,.F.);
#182=ORIENTED_EDGE('',*,*,#145,.T.);
#183=ORIENTED_EDGE('',*,*,#146,.F.);
#184=ORIENTED_EDGE('',*,*,#146,.T.);
#185=ORIENTED_EDGE('',*,*,#147,.F.);
#186=ORIENTED_EDGE('',*,*,#143,.F.);
#187=ORIENTED_EDGE('',*,*,#147,.T.);
#188=CONICAL_SURFACE('',#210,19.5810889132455,15.);
#189=CONICAL_SURFACE('',#220,20.975,45.);
#190=CONICAL_SURFACE('',#239,19.075,44.9999999999999);
#191=ADVANCED_FACE('',(#46,#32),#188,.T.);
#192=ADVANCED_FACE('',(#47,#33),#30,.F.);
#193=ADVANCED_FACE('',(#48),#22,.T.);
#194=ADVANCED_FACE('',(#49,#34),#189,.T.);
#195=ADVANCED_FACE('',(#50,#35),#31,.T.);
#196=ADVANCED_FACE('',(#51,#36),#23,.T.);
#197=ADVANCED_FACE('',(#52,#37),#24,.F.);
#198=ADVANCED_FACE('',(#53),#18,.T.);
#199=ADVANCED_FACE('',(#54,#38),#25,.T.);
#200=ADVANCED_FACE('',(#55,#39),#15,.F.);
#201=ADVANCED_FACE('',(#56),#19,.F.);
#202=ADVANCED_FACE('',(#57,#40),#26,.T.);
#203=ADVANCED_FACE('',(#58,#41),#16,.T.);
#204=ADVANCED_FACE('',(#59,#42),#27,.F.);
#205=ADVANCED_FACE('',(#60,#43),#190,.F.);
#206=ADVANCED_FACE('',(#61,#44),#28,.F.);
#207=ADVANCED_FACE('',(#62,#45),#17,.T.);
#208=CLOSED_SHELL('',(#191,#192,#193,#194,#195,#196,#197,#198,#199,#200,
#201,#202,#203,#204,#205,#206,#207));
#209=AXIS2_PLACEMENT_3D('placement',#314,#244,#245);
#210=AXIS2_PLACEMENT_3D('',#315,#246,#247);
#211=AXIS2_PLACEMENT_3D('',#317,#248,#249);
#212=AXIS2_PLACEMENT_3D('',#319,#250,#251);
#213=AXIS2_PLACEMENT_3D('',#320,#252,#253);
#214=AXIS2_PLACEMENT_3D('',#322,#254,#255);
#215=AXIS2_PLACEMENT_3D('',#339,#256,#257);
#216=AXIS2_PLACEMENT_3D('',#340,#258,#259);
#217=AXIS2_PLACEMENT_3D('',#342,#260,#261);
#218=AXIS2_PLACEMENT_3D('',#344,#262,#263);
#219=AXIS2_PLACEMENT_3D('',#345,#264,#265);
#220=AXIS2_PLACEMENT_3D('',#346,#266,#267);
#221=AXIS2_PLACEMENT_3D('',#348,#268,#269);
#222=AXIS2_PLACEMENT_3D('',#349,#270,#271);
#223=AXIS2_PLACEMENT_3D('',#351,#272,#273);
#224=AXIS2_PLACEMENT_3D('',#352,#274,#275);
#225=AXIS2_PLACEMENT_3D('',#354,#276,#277);
#226=AXIS2_PLACEMENT_3D('',#355,#278,#279);
#227=AXIS2_PLACEMENT_3D('',#357,#280,#281);
#228=AXIS2_PLACEMENT_3D('',#359,#282,#283);
#229=AXIS2_PLACEMENT_3D('',#387,#284,#285);
#230=AXIS2_PLACEMENT_3D('',#388,#286,#287);
#231=AXIS2_PLACEMENT_3D('',#389,#288,#289);
#232=AXIS2_PLACEMENT_3D('',#390,#290,#291);
#233=AXIS2_PLACEMENT_3D('',#418,#292,#293);
#234=AXIS2_PLACEMENT_3D('',#420,#294,#295);
#235=AXIS2_PLACEMENT_3D('',#422,#296,#297);
#236=AXIS2_PLACEMENT_3D('',#423,#298,#299);
#237=AXIS2_PLACEMENT_3D('',#424,#300,#301);
#238=AXIS2_PLACEMENT_3D('',#426,#302,#303);
#239=AXIS2_PLACEMENT_3D('',#427,#304,#305);
#240=AXIS2_PLACEMENT_3D('',#429,#306,#307);
#241=AXIS2_PLACEMENT_3D('',#430,#308,#309);
#242=AXIS2_PLACEMENT_3D('',#432,#310,#311);
#243=AXIS2_PLACEMENT_3D('',#433,#312,#313);
#244=DIRECTION('axis',(0.,0.,1.));
#245=DIRECTION('refdir',(1.,0.,0.));
#246=DIRECTION('center_axis',(0.,1.,0.));
#247=DIRECTION('ref_axis',(-1.,0.,0.));
#248=DIRECTION('center_axis',(0.,1.,0.));
#249=DIRECTION('ref_axis',(0.,0.,-1.));
#250=DIRECTION('center_axis',(1.60812264967664E-16,-1.,0.));
#251=DIRECTION('ref_axis',(-1.,0.,0.));
#252=DIRECTION('center_axis',(-1.,0.,0.));
#253=DIRECTION('ref_axis',(0.,0.,1.));
#254=DIRECTION('center_axis',(-1.,2.18301892987061E-16,-2.18301892987061E-16));
#255=DIRECTION('ref_axis',(2.18301892987061E-16,1.,-3.06161699786838E-17));
#256=DIRECTION('center_axis',(1.,0.,0.));
#257=DIRECTION('ref_axis',(0.,1.,6.12323399573677E-17));
#258=DIRECTION('center_axis',(-1.,0.,0.));
#259=DIRECTION('ref_axis',(0.,0.,-1.));
#260=DIRECTION('center_axis',(0.707106781186548,0.707106781186548,0.));
#261=DIRECTION('ref_axis',(0.707106781186547,-0.707106781186547,0.));
#262=DIRECTION('center_axis',(-1.,0.,0.));
#263=DIRECTION('ref_axis',(0.,0.,-1.));
#264=DIRECTION('center_axis',(0.707106781186548,0.707106781186548,0.));
#265=DIRECTION('ref_axis',(0.707106781186547,-0.707106781186547,0.));
#266=DIRECTION('center_axis',(1.,0.,0.));
#267=DIRECTION('ref_axis',(0.,-1.,0.));
#268=DIRECTION('center_axis',(1.,0.,0.));
#269=DIRECTION('ref_axis',(0.,1.,-3.06161699786838E-17));
#270=DIRECTION('center_axis',(-1.,0.,0.));
#271=DIRECTION('ref_axis',(0.,0.,1.));
#272=DIRECTION('center_axis',(-1.,0.,0.));
#273=DIRECTION('ref_axis',(0.,1.,6.12323399573677E-17));
#274=DIRECTION('center_axis',(-1.,0.,0.));
#275=DIRECTION('ref_axis',(0.,-1.,0.));
#276=DIRECTION('center_axis',(-1.,0.,0.));
#277=DIRECTION('ref_axis',(0.,0.,1.));
#278=DIRECTION('center_axis',(0.,-1.,0.));
#279=DIRECTION('ref_axis',(0.,0.,-1.));
#280=DIRECTION('center_axis',(-1.60812264967664E-16,1.,0.));
#281=DIRECTION('ref_axis',(0.,0.,-1.));
#282=DIRECTION('center_axis',(1.60812264967664E-16,-1.,0.));
#283=DIRECTION('ref_axis',(0.,0.,-1.));
#284=DIRECTION('center_axis',(-1.,0.,0.));
#285=DIRECTION('ref_axis',(0.,0.,-1.));
#286=DIRECTION('center_axis',(0.,-1.,0.));
#287=DIRECTION('ref_axis',(0.,0.,-1.));
#288=DIRECTION('center_axis',(1.60812264967664E-16,-1.,0.));
#289=DIRECTION('ref_axis',(0.,0.,-1.));
#290=DIRECTION('center_axis',(-1.60812264967664E-16,1.,0.));
#291=DIRECTION('ref_axis',(0.,0.,-1.));
#292=DIRECTION('center_axis',(-1.,0.,0.));
#293=DIRECTION('ref_axis',(0.,-1.,0.));
#294=DIRECTION('center_axis',(-1.,0.,0.));
#295=DIRECTION('ref_axis',(0.,0.,1.));
#296=DIRECTION('center_axis',(-1.,0.,0.));
#297=DIRECTION('ref_axis',(0.,0.,1.));
#298=DIRECTION('center_axis',(-1.,0.,0.));
#299=DIRECTION('ref_axis',(0.,0.,1.));
#300=DIRECTION('center_axis',(-1.,0.,0.));
#301=DIRECTION('ref_axis',(0.,-1.,0.));
#302=DIRECTION('center_axis',(-1.,0.,0.));
#303=DIRECTION('ref_axis',(0.,0.,1.));
#304=DIRECTION('center_axis',(1.,0.,0.));
#305=DIRECTION('ref_axis',(0.,-1.,0.));
#306=DIRECTION('center_axis',(-1.,0.,0.));
#307=DIRECTION('ref_axis',(0.,0.,1.));
#308=DIRECTION('center_axis',(-1.,0.,0.));
#309=DIRECTION('ref_axis',(0.,-1.,0.));
#310=DIRECTION('center_axis',(-1.,0.,0.));
#311=DIRECTION('ref_axis',(0.,0.,1.));
#312=DIRECTION('center_axis',(1.,0.,0.));
#313=DIRECTION('ref_axis',(0.,0.,-1.));
#314=CARTESIAN_POINT('',(0.,0.,0.));
#315=CARTESIAN_POINT('Origin',(0.,1.75,0.));
#316=CARTESIAN_POINT('',(-20.05,3.5,0.));
#317=CARTESIAN_POINT('Origin',(0.,3.5,0.));
#318=CARTESIAN_POINT('',(-19.1121778264911,-3.07046055247895E-15,0.));
#319=CARTESIAN_POINT('Origin',(0.,-4.44089209850063E-15,0.));
#320=CARTESIAN_POINT('Origin',(19.7357864376269,75.,0.));
#321=CARTESIAN_POINT('',(20.4428932188134,54.6571067811865,1.24564295329081E-15));
#322=CARTESIAN_POINT('Origin',(20.4428932188134,75.,-1.86846442993622E-15));
#323=CARTESIAN_POINT('',(19.7357864376269,55.2642135623731,-3.53570837151235));
#324=CARTESIAN_POINT('',(19.7357864376269,55.2642135623731,3.53570837151235));
#325=CARTESIAN_POINT('Ctrl Pts',(19.7357864376269,55.2642135623731,-3.53570837151235));
#326=CARTESIAN_POINT('Ctrl Pts',(19.8009175152778,55.1990824847222,-3.17215660086064));
#327=CARTESIAN_POINT('Ctrl Pts',(19.859117684506,55.1343649351421,-2.78940854328699));
#328=CARTESIAN_POINT('Ctrl Pts',(19.9634480151201,55.0118307321825,-1.91994033884831));
#329=CARTESIAN_POINT('Ctrl Pts',(20.0036071827406,54.9600764555582,-1.44672273617011));
#330=CARTESIAN_POINT('Ctrl Pts',(20.0415213655317,54.9106950126181,-0.658011306360606));
#331=CARTESIAN_POINT('Ctrl Pts',(20.0493329312006,54.9002384674973,-0.351365510299141));
#332=CARTESIAN_POINT('Ctrl Pts',(20.0505637151059,54.8986034808009,0.25966865864102));
#333=CARTESIAN_POINT('Ctrl Pts',(20.0444723478168,54.9067752436579,0.560799321899493));
#334=CARTESIAN_POINT('Ctrl Pts',(20.0120221827878,54.9492010157545,1.31204374051061));
#335=CARTESIAN_POINT('Ctrl Pts',(19.9779551131361,54.9934713952509,1.75715056593593));
#336=CARTESIAN_POINT('Ctrl Pts',(19.8770246497381,55.1142274758368,2.66899915368062));
#337=CARTESIAN_POINT('Ctrl Pts',(19.8114973490273,55.1885026509727,3.11310157779746));
#338=CARTESIAN_POINT('Ctrl Pts',(19.7357864376269,55.2642135623731,3.53570837151235));
#339=CARTESIAN_POINT('Origin',(19.7357864376269,75.,0.));
#340=CARTESIAN_POINT('Origin',(20.15,75.,0.));
#341=CARTESIAN_POINT('',(18.15,56.85,-8.51938964949956));
#342=CARTESIAN_POINT('Origin',(0.,75.,0.));
#343=CARTESIAN_POINT('',(18.15,56.85,8.51938964949958));
#344=CARTESIAN_POINT('Origin',(18.15,75.,0.));
#345=CARTESIAN_POINT('Origin',(0.,75.,0.));
#346=CARTESIAN_POINT('Origin',(21.075,75.,0.));
#347=CARTESIAN_POINT('',(21.7071067811865,53.3928932188135,-3.96916112376228E-15));
#348=CARTESIAN_POINT('Origin',(21.7071067811865,75.,-1.98458056188114E-15));
#349=CARTESIAN_POINT('Origin',(22.4142135623731,75.,0.));
#350=CARTESIAN_POINT('',(22.4142135623731,53.1,1.34098824506635E-15));
#351=CARTESIAN_POINT('Origin',(22.4142135623731,75.,0.));
#352=CARTESIAN_POINT('Origin',(34.5,75.,0.));
#353=CARTESIAN_POINT('',(47.,53.1,0.));
#354=CARTESIAN_POINT('Origin',(47.,75.,0.));
#355=CARTESIAN_POINT('Origin',(4.44089209850063E-15,56.85,0.));
#356=CARTESIAN_POINT('',(2.22044604925031E-15,0.,18.15));
#357=CARTESIAN_POINT('Origin',(4.44089209850063E-15,0.,0.));
#358=CARTESIAN_POINT('',(18.15,56.85,0.));
#359=CARTESIAN_POINT('Origin',(4.44089209850063E-15,56.85,0.));
#360=CARTESIAN_POINT('Ctrl Pts',(18.15,56.85,-2.22273394045245E-15));
#361=CARTESIAN_POINT('Ctrl Pts',(18.15,56.85,-2.22273394045245E-15));
#362=CARTESIAN_POINT('Ctrl Pts',(18.15,56.85,-2.22273394045245E-15));
#363=CARTESIAN_POINT('Ctrl Pts',(18.15,56.85,-18.15));
#364=CARTESIAN_POINT('Ctrl Pts',(18.15,56.85,-18.15));
#365=CARTESIAN_POINT('Ctrl Pts',(18.15,56.85,-18.15));
#366=CARTESIAN_POINT('Ctrl Pts',(18.15,75.,-18.15));
#367=CARTESIAN_POINT('Ctrl Pts',(8.88178419700125E-15,75.,-18.15));
#368=CARTESIAN_POINT('Ctrl Pts',(4.44089209850063E-15,56.85,-18.15));
#369=CARTESIAN_POINT('Ctrl Pts',(18.15,93.15,-18.15));
#370=CARTESIAN_POINT('Ctrl Pts',(-18.15,93.15,-18.15));
#371=CARTESIAN_POINT('Ctrl Pts',(-18.15,56.85,-18.15));
#372=CARTESIAN_POINT('Ctrl Pts',(18.15,93.15,0.));
#373=CARTESIAN_POINT('Ctrl Pts',(-18.15,93.15,0.));
#374=CARTESIAN_POINT('Ctrl Pts',(-18.15,56.85,0.));
#375=CARTESIAN_POINT('Ctrl Pts',(18.15,93.15,18.15));
#376=CARTESIAN_POINT('Ctrl Pts',(-18.15,93.15,18.15));
#377=CARTESIAN_POINT('Ctrl Pts',(-18.15,56.85,18.15));
#378=CARTESIAN_POINT('Ctrl Pts',(18.15,75.,18.15));
#379=CARTESIAN_POINT('Ctrl Pts',(8.88178419700125E-15,75.,18.15));
#380=CARTESIAN_POINT('Ctrl Pts',(4.44089209850063E-15,56.85,18.15));
#381=CARTESIAN_POINT('Ctrl Pts',(18.15,56.85,18.15));
#382=CARTESIAN_POINT('Ctrl Pts',(18.15,56.85,18.15));
#383=CARTESIAN_POINT('Ctrl Pts',(18.15,56.85,18.15));
#384=CARTESIAN_POINT('Ctrl Pts',(18.15,56.85,2.22273394045245E-15));
#385=CARTESIAN_POINT('Ctrl Pts',(18.15,56.85,2.22273394045245E-15));
#386=CARTESIAN_POINT('Ctrl Pts',(18.15,56.85,2.22273394045245E-15));
#387=CARTESIAN_POINT('Origin',(18.15,75.,0.));
#388=CARTESIAN_POINT('Origin',(0.,56.85,0.));
#389=CARTESIAN_POINT('Origin',(4.44089209850063E-15,56.85,0.));
#390=CARTESIAN_POINT('Origin',(1.77635683940025E-14,-4.44089209850063E-15,
-9.42920995126552E-16));
#391=CARTESIAN_POINT('Ctrl Pts',(18.15,56.85,-8.51938964949957));
#392=CARTESIAN_POINT('Ctrl Pts',(18.15,56.85,-8.51938964949957));
#393=CARTESIAN_POINT('Ctrl Pts',(18.15,56.85,-8.51938964949957));
#394=CARTESIAN_POINT('Ctrl Pts',(18.15,63.6786883321608,-23.0674615569747));
#395=CARTESIAN_POINT('Ctrl Pts',(11.3213116678392,63.6786883321608,-23.0674615569747));
#396=CARTESIAN_POINT('Ctrl Pts',(11.3213116678392,56.85,-23.0674615569747));
#397=CARTESIAN_POINT('Ctrl Pts',(18.15,79.3643441660804,-19.5692360607153));
#398=CARTESIAN_POINT('Ctrl Pts',(-4.3643441660804,79.3643441660804,-19.5692360607153));
#399=CARTESIAN_POINT('Ctrl Pts',(-4.36434416608041,56.85,-19.5692360607153));
#400=CARTESIAN_POINT('Ctrl Pts',(18.15,95.05,-16.071010564456));
#401=CARTESIAN_POINT('Ctrl Pts',(-20.05,95.05,-16.071010564456));
#402=CARTESIAN_POINT('Ctrl Pts',(-20.05,56.85,-16.071010564456));
#403=CARTESIAN_POINT('Ctrl Pts',(18.15,95.05,0.));
#404=CARTESIAN_POINT('Ctrl Pts',(-20.05,95.05,0.));
#405=CARTESIAN_POINT('Ctrl Pts',(-20.05,56.85,0.));
#406=CARTESIAN_POINT('Ctrl Pts',(18.15,95.05,16.071010564456));
#407=CARTESIAN_POINT('Ctrl Pts',(-20.05,95.05,16.071010564456));
#408=CARTESIAN_POINT('Ctrl Pts',(-20.05,56.85,16.071010564456));
#409=CARTESIAN_POINT('Ctrl Pts',(18.15,79.3643441660804,19.5692360607153));
#410=CARTESIAN_POINT('Ctrl Pts',(-4.3643441660804,79.3643441660804,19.5692360607153));
#411=CARTESIAN_POINT('Ctrl Pts',(-4.36434416608041,56.85,19.5692360607153));
#412=CARTESIAN_POINT('Ctrl Pts',(18.15,63.6786883321608,23.0674615569747));
#413=CARTESIAN_POINT('Ctrl Pts',(11.3213116678392,63.6786883321608,23.0674615569747));
#414=CARTESIAN_POINT('Ctrl Pts',(11.3213116678392,56.85,23.0674615569747));
#415=CARTESIAN_POINT('Ctrl Pts',(18.15,56.85,8.51938964949957));
#416=CARTESIAN_POINT('Ctrl Pts',(18.15,56.85,8.51938964949957));
#417=CARTESIAN_POINT('Ctrl Pts',(18.15,56.85,8.51938964949957));
#418=CARTESIAN_POINT('Origin',(48.,75.,0.));
#419=CARTESIAN_POINT('',(49.,52.5,0.));
#420=CARTESIAN_POINT('Origin',(49.,75.,0.));
#421=CARTESIAN_POINT('',(47.,52.5,0.));
#422=CARTESIAN_POINT('Origin',(47.,75.,0.));
#423=CARTESIAN_POINT('Origin',(47.,53.1,0.));
#424=CARTESIAN_POINT('Origin',(20.5435028842544,75.,0.));
#425=CARTESIAN_POINT('',(20.9370057685089,56.85,0.));
#426=CARTESIAN_POINT('Origin',(20.9370057685089,75.,0.));
#427=CARTESIAN_POINT('Origin',(21.8620057685089,75.,0.));
#428=CARTESIAN_POINT('',(22.7870057685089,55.,0.));
#429=CARTESIAN_POINT('Origin',(22.7870057685089,75.,0.));
#430=CARTESIAN_POINT('Origin',(35.8935028842544,75.,0.));
#431=CARTESIAN_POINT('',(49.,55.,0.));
#432=CARTESIAN_POINT('Origin',(49.,75.,0.));
#433=CARTESIAN_POINT('Origin',(49.,52.5,0.));
#434=UNCERTAINTY_MEASURE_WITH_UNIT(LENGTH_MEASURE(0.01),#438,
'DISTANCE_ACCURACY_VALUE',
'Maximum model space distance between geometric entities at asserted c
onnectivities');
#435=UNCERTAINTY_MEASURE_WITH_UNIT(LENGTH_MEASURE(1.E-6),#438,
'DISTANCE_ACCURACY_VALUE',
'Maximum model space distance between geometric entities at asserted c
onnectivities');
#436=(
GEOMETRIC_REPRESENTATION_CONTEXT(3)
GLOBAL_UNCERTAINTY_ASSIGNED_CONTEXT((#434))
GLOBAL_UNIT_ASSIGNED_CONTEXT((#438,#441,#439))
REPRESENTATION_CONTEXT('','3D')
);
#437=(
GEOMETRIC_REPRESENTATION_CONTEXT(3)
GLOBAL_UNCERTAINTY_ASSIGNED_CONTEXT((#435))
GLOBAL_UNIT_ASSIGNED_CONTEXT((#438,#441,#439))
REPRESENTATION_CONTEXT('','3D')
);
#438=(
LENGTH_UNIT()
NAMED_UNIT(*)
SI_UNIT(.MILLI.,.METRE.)
);
#439=(
NAMED_UNIT(*)
SI_UNIT($,.STERADIAN.)
SOLID_ANGLE_UNIT()
);
#440=DIMENSIONAL_EXPONENTS(0.,0.,0.,0.,0.,0.,0.);
#441=(
CONVERSION_BASED_UNIT('degree',#443)
NAMED_UNIT(#440)
PLANE_ANGLE_UNIT()
);
#442=(
NAMED_UNIT(*)
PLANE_ANGLE_UNIT()
SI_UNIT($,.RADIAN.)
);
#443=PLANE_ANGLE_MEASURE_WITH_UNIT(PLANE_ANGLE_MEASURE(0.01745329252),#442);
#444=SHAPE_DEFINITION_REPRESENTATION(#445,#446);
#445=PRODUCT_DEFINITION_SHAPE('',$,#448);
#446=SHAPE_REPRESENTATION('',(#209),#436);
#447=PRODUCT_DEFINITION_CONTEXT('part definition',#452,'design');
#448=PRODUCT_DEFINITION('171910 HTsafeSW DN_OD 40_30',
'171910 HTsafeSW DN_OD 40_30',#449,#447);
#449=PRODUCT_DEFINITION_FORMATION('',$,#454);
#450=PRODUCT_RELATED_PRODUCT_CATEGORY('171910 HTsafeSW DN_OD 40_30',
'171910 HTsafeSW DN_OD 40_30',(#454));
#451=APPLICATION_PROTOCOL_DEFINITION('international standard',
'automotive_design',2009,#452);
#452=APPLICATION_CONTEXT(
'Core Data for Automotive Mechanical Design Process');
#453=PRODUCT_CONTEXT('part definition',#452,'mechanical');
#454=PRODUCT('171910 HTsafeSW DN_OD 40_30',
'171910 HTsafeSW DN_OD 40_30',$,(#453));
#455=PRESENTATION_STYLE_ASSIGNMENT((#456));
#456=SURFACE_STYLE_USAGE(.BOTH.,#457);
#457=SURFACE_SIDE_STYLE('',(#458));
#458=SURFACE_STYLE_FILL_AREA(#459);
#459=FILL_AREA_STYLE('',(#460));
#460=FILL_AREA_STYLE_COLOUR('',#461);
#461=COLOUR_RGB('',0.749019607843137,0.749019607843137,0.749019607843137);
ENDSEC;
END-ISO-10303-21;
